  0
SECTION
  2
HEADER
  9
$EXTMIN
 10
-29700.0
 20
-21000.0
  9
$EXTMAX
 10
29700.0
 20
21000.0
  9
$PDMODE
 70
    32
  9
$PDSIZE
 40
150.0
  9
$LTSCALE
 40
1000.0
  0
ENDSEC
  0
SECTION
  2
TABLES
  0
TABLE
  2
LTYPE
 70
    15
  0
LTYPE
  2
CONTINUOUS
 70
    64
  3
Ä└É³
 72
    65
 73
     0
 40
0.0
  0
LTYPE
  2
DASHED
 70
    64
  3
öjÉ³A
 72
    65
 73
     2
 40
0.6
 49
0.4
 49
-0.2
  0
LTYPE
  2
DASHEDX2
 70
    64
  3
öjÉ³B
 72
    65
 73
     2
 40
1.3
 49
0.9
 49
-0.4
  0
LTYPE
  2
DASHDOT
 70
    64
  3
éPô_ì¢É³A
 72
    65
 73
     4
 40
0.5375
 49
0.375
 49
-0.05
 49
0.0625
 49
-0.05
  0
LTYPE
  2
DASHDOTX2
 70
    64
  3
éPô_ì¢É³B
 72
    65
 73
     4
 40
1.075
 49
0.75
 49
-0.1
 49
0.125
 49
-0.1
  0
LTYPE
  2
DIVIDE2
 70
    64
  3
éQô_ì¢É³A
 72
    65
 73
     6
 40
0.5125
 49
0.3
 49
-0.0375
 49
0.05
 49
-0.0375
 49
0.05
 49
-0.0375
  0
LTYPE
  2
DIVIDE
 70
    64
  3
éQô_ì¢É³B
 72
    65
 73
     6
 40
1.05
 49
0.55
 49
-0.1
 49
0.1
 49
-0.1
 49
0.1
 49
-0.1
  0
LTYPE
  2
DOT
 70
    64
  3
ô_É³A
 72
    65
 73
     2
 40
0.1125
 49
0.0625
 49
-0.05
  0
LTYPE
  2
DOTX2
 70
    64
  3
ô_É³B
 72
    65
 73
     2
 40
0.275
 49
0.15
 49
-0.125
  0
LTYPE
  2
CONTINUOUS
 70
    64
  3
Ä└É³
 72
    65
 73
     0
 40
0.0
  0
LTYPE
  2
CONTINUOUS
 70
    64
  3
Ä└É³
 72
    65
 73
     0
 40
0.0
  0
LTYPE
  2
CONTINUOUS
 70
    64
  3
Ä└É³
 72
    65
 73
     0
 40
0.0
  0
LTYPE
  2
CONTINUOUS
 70
    64
  3
Ä└É³
 72
    65
 73
     0
 40
0.0
  0
LTYPE
  2
CONTINUOUS
 70
    64
  3
Ä└É³
 72
    65
 73
     0
 40
0.0
  0
LTYPE
  2
CONTINUOUS
 70
    64
  3
Ä└É³
 72
    65
 73
     0
 40
0.0
  0
ENDTAB
  0
TABLE
  2
LAYER
 70
    21
  0
LAYER
  2
┌▓È1
 70
     0
 62
    55
  6
CONTINUOUS
  0
LAYER
  2
┌▓È2
 70
     0
 62
    33
  6
CONTINUOUS
  0
LAYER
  2
┌▓È3
 70
     0
 62
    57
  6
CONTINUOUS
  0
LAYER
  2
┌▓È4
 70
     0
 62
    35
  6
CONTINUOUS
  0
LAYER
  2
┌▓È5
 70
     0
 62
    36
  6
CONTINUOUS
  0
LAYER
  2
┌▓È6
 70
     0
 62
    41
  6
CONTINUOUS
  0
LAYER
  2
òÔÅòÉ³
 70
     0
 62
   -38
  6
DOT
  0
LAYER
  2
òÂÄÜ
 70
     0
 62
    39
  6
CONTINUOUS
  0
LAYER
  2
Æ╩éÞÉc
 70
     0
 62
    40
  6
DASHDOT
  0
LAYER
  2
┌▓È10
 70
     0
 62
    64
  6
CONTINUOUS
  0
LAYER
  2
┌▓È11
 70
     0
 62
    42
  6
CONTINUOUS
  0
LAYER
  2
┌▓È12
 70
     0
 62
    43
  6
CONTINUOUS
  0
LAYER
  2
┌▓È13
 70
     0
 62
    44
  6
CONTINUOUS
  0
LAYER
  2
┌▓È14
 70
     0
 62
    27
  6
CONTINUOUS
  0
LAYER
  2
Éíû@
 70
     0
 62
    46
  6
CONTINUOUS
  0
LAYER
  2
╩»┴¦©Ì
 70
     0
 62
    47
  6
CONTINUOUS
  0
LAYER
  2
┌▓È9
 70
     0
 62
     8
  6
CONTINUOUS
  0
LAYER
  2
┌▓È15
 70
     0
 62
    29
  6
CONTINUOUS
  0
LAYER
  2
┌▓È7
 70
     0
 62
     1
  6
DOT
  0
LAYER
  2
┌▓È8
 70
     0
 62
    13
  6
CONTINUOUS
  0
LAYER
  2
┌▓È16
 70
     0
 62
    34
  6
CONTINUOUS
  0
ENDTAB
  0
TABLE
  2
STYLE
 70
    10
  0
STYLE
  2
STANDARD
 70
     0
 40
100.0
 41
1.0
 42
100.0
 50
0.0
 71
     0
  3
TXT
  4
BIGFONT
  0
STYLE
  2
TATE
 70
     4
 40
100.0
 41
1.0
 42
100.0
 50
0.0
 71
     0
  3
TXT
  4
BIGFONT
  0
STYLE
  2
TextStyle03
 70
     0
 40
100.0
 41
1.0
 42
100.0
 50
0.0
 71
     0
  3
MONOTXT
  4
BIGFONT
  0
STYLE
  2
TextStyle04
 70
     0
 40
100.0
 41
1.0
 42
100.0
 50
0.0
 71
     0
  3
MONOTXT
  4
BIGFONT
  0
STYLE
  2
TextStyle05
 70
     0
 40
100.0
 41
1.0
 42
100.0
 50
0.0
 71
     0
  3
MONOTXT
  4
BIGFONT
  0
STYLE
  2
TextStyle06
 70
     0
 40
100.0
 41
1.0
 42
100.0
 50
0.0
 71
     0
  3
MONOTXT
  4
BIGFONT
  0
STYLE
  2
TextStyle07
 70
     0
 40
100.0
 41
1.0
 42
100.0
 50
0.0
 71
     0
  3
MONOTXT
  4
BIGFONT
  0
STYLE
  2
TextStyle08
 70
     0
 40
100.0
 41
1.0
 42
100.0
 50
0.0
 71
     0
  3
MONOTXT
  4
BIGFONT
  0
STYLE
  2
TextStyle09
 70
     0
 40
100.0
 41
1.0
 42
100.0
 50
0.0
 71
     0
  3
MONOTXT
  4
BIGFONT
  0
STYLE
  2
TextStyle10
 70
     0
 40
100.0
 41
1.0
 42
100.0
 50
0.0
 71
     0
  3
MONOTXT
  4
BIGFONT
  0
ENDTAB
  0
ENDSEC
  0
SECTION
  2
BLOCKS
  0
BLOCK
  2
*DIM_0001
 70
    65
 10
0.0
 20
0.0
  0
LINE
  8
Éíû@
 10
-24178.031
 20
10506.9035
 11
-24778.031
 21
10506.9035
  0
LINE
  8
Éíû@
 10
-24178.031
 20
5840.23675
 11
-24778.031
 21
5840.23675
  0
LINE
  8
Éíû@
 10
-24778.031
 20
10506.9035
 11
-24778.031
 21
5840.23675
  0
POINT
  8
Éíû@
 10
-24778.031
 20
10506.9035
  0
POINT
  8
Éíû@
 10
-24778.031
 20
5840.23675
  0
TEXT
  7
TextStyle03
  8
Éíû@
  6
CONTINUOUS
 10
-24817.5
 20
7757.5
  1
1,400
 40
300.0
 50
90.0
 72
     5
 11
-24817.5
 21
8582.5
  0
ENDBLK
  0
BLOCK
  2
*DIM_0002
 70
    65
 10
0.0
 20
0.0
  0
LINE
  8
Éíû@
 10
-23578.031
 20
5840.23675
 11
-24178.031
 21
5840.23675
  0
LINE
  8
Éíû@
 10
-24178.031
 20
6840.23675
 11
-24178.031
 21
5840.23675
  0
POINT
  8
Éíû@
 10
-24178.031
 20
5840.23675
  0
TEXT
  7
TextStyle03
  8
Éíû@
  6
CONTINUOUS
 10
-24217.5
 20
6093.75
  1
300
 40
300.0
 50
90.0
 72
     5
 11
-24217.5
 21
6581.25
  0
ENDBLK
  0
BLOCK
  2
*DIM_0003
 70
    65
 10
0.0
 20
0.0
  0
LINE
  8
Éíû@
 10
-23578.031
 20
7840.23675
 11
-24178.031
 21
7840.23675
  0
LINE
  8
Éíû@
 10
-23578.031
 20
6840.23675
 11
-24178.031
 21
6840.23675
  0
LINE
  8
Éíû@
 10
-24178.031
 20
7840.23675
 11
-24178.031
 21
6840.23675
  0
POINT
  8
Éíû@
 10
-24178.031
 20
7840.23675
  0
POINT
  8
Éíû@
 10
-24178.031
 20
6840.23675
  0
TEXT
  7
TextStyle03
  8
Éíû@
  6
CONTINUOUS
 10
-24215.0
 20
7093.75
  1
300
 40
300.0
 50
90.0
 72
     5
 11
-24215.0
 21
7581.25
  0
ENDBLK
  0
BLOCK
  2
*DIM_0004
 70
    65
 10
0.0
 20
0.0
  0
LINE
  8
Éíû@
 10
-23578.031
 20
10506.9035
 11
-24178.031
 21
10506.9035
  0
LINE
  8
Éíû@
 10
-23578.031
 20
8840.237
 11
-24178.031
 21
8840.237
  0
LINE
  8
Éíû@
 10
-24178.031
 20
10506.9035
 11
-24178.031
 21
8840.237
  0
POINT
  8
Éíû@
 10
-24178.031
 20
10506.9035
  0
POINT
  8
Éíû@
 10
-24178.031
 20
8840.237
  0
TEXT
  7
TextStyle03
  8
Éíû@
  6
CONTINUOUS
 10
-24215.0
 20
9426.25
  1
500
 40
300.0
 50
90.0
 72
     5
 11
-24215.0
 21
9913.75
  0
ENDBLK
  0
BLOCK
  2
*DIM_0005
 70
    65
 10
0.0
 20
0.0
  0
LINE
  8
Éíû@
 10
-23578.031
 20
8840.237
 11
-24178.031
 21
8840.237
  0
LINE
  8
Éíû@
 10
-23578.031
 20
7840.23675
 11
-24178.031
 21
7840.23675
  0
LINE
  8
Éíû@
 10
-24178.031
 20
8840.237
 11
-24178.031
 21
7840.23675
  0
POINT
  8
Éíû@
 10
-24178.031
 20
8840.237
  0
POINT
  8
Éíû@
 10
-24178.031
 20
7840.23675
  0
TEXT
  7
TextStyle03
  8
Éíû@
  6
CONTINUOUS
 10
-24215.0
 20
8093.75
  1
300
 40
300.0
 50
90.0
 72
     5
 11
-24215.0
 21
8581.25
  0
ENDBLK
  0
BLOCK
  2
*DIM_0006
 70
    65
 10
0.0
 20
0.0
  0
LINE
  8
Éíû@
 10
-15839.1055
 20
10506.9035
 11
-16439.1055
 21
10506.9035
  0
LINE
  8
Éíû@
 10
-15839.1055
 20
8840.237
 11
-16439.1055
 21
8840.237
  0
LINE
  8
Éíû@
 10
-16439.1055
 20
10506.9035
 11
-16439.1055
 21
8840.237
  0
POINT
  8
Éíû@
 10
-16439.1055
 20
10506.9035
  0
POINT
  8
Éíû@
 10
-16439.1055
 20
8840.237
  0
TEXT
  7
TextStyle03
  8
Éíû@
  6
CONTINUOUS
 10
-16480.0
 20
9426.25
  1
500
 40
300.0
 50
90.0
 72
     5
 11
-16480.0
 21
9913.75
  0
ENDBLK
  0
BLOCK
  2
*DIM_0007
 70
    65
 10
0.0
 20
0.0
  0
LINE
  8
Éíû@
 10
-16439.1055
 20
10506.9035
 11
-17039.1055
 21
10506.9035
  0
LINE
  8
Éíû@
 10
-16439.1055
 20
7840.23675
 11
-17039.1055
 21
7840.23675
  0
LINE
  8
Éíû@
 10
-17039.1055
 20
10506.9035
 11
-17039.1055
 21
7840.23675
  0
POINT
  8
Éíû@
 10
-17039.1055
 20
10506.9035
  0
POINT
  8
Éíû@
 10
-17039.1055
 20
7840.23675
  0
TEXT
  7
TextStyle03
  8
Éíû@
  6
CONTINUOUS
 10
-17080.0
 20
8926.25
  1
800
 40
300.0
 50
90.0
 72
     5
 11
-17080.0
 21
9413.75
  0
ENDBLK
  0
BLOCK
  2
*DIM_0008
 70
    65
 10
0.0
 20
0.0
  0
LINE
  8
Éíû@
 10
-15839.1055
 20
8840.237
 11
-16439.1055
 21
8840.237
  0
LINE
  8
Éíû@
 10
-15839.1055
 20
7840.23675
 11
-16439.1055
 21
7840.23675
  0
LINE
  8
Éíû@
 10
-16439.1055
 20
8840.237
 11
-16439.1055
 21
7840.23675
  0
POINT
  8
Éíû@
 10
-16439.1055
 20
8840.237
  0
POINT
  8
Éíû@
 10
-16439.1055
 20
7840.23675
  0
TEXT
  7
TextStyle03
  8
Éíû@
  6
CONTINUOUS
 10
-16480.0
 20
8093.75
  1
300
 40
300.0
 50
90.0
 72
     5
 11
-16480.0
 21
8581.25
  0
ENDBLK
  0
BLOCK
  2
*DIM_0009
 70
    65
 10
0.0
 20
0.0
  0
LINE
  8
Éíû@
 10
-7374.85675
 20
5269.2825
 11
-7374.85675
 21
4669.2825
  0
LINE
  8
Éíû@
 10
-5708.19
 20
5269.2825
 11
-5708.19
 21
4669.2825
  0
LINE
  8
Éíû@
 10
-7374.85675
 20
4669.2825
 11
-5708.19
 21
4669.2825
  0
POINT
  8
Éíû@
 10
-7374.85675
 20
4669.2825
  0
POINT
  8
Éíû@
 10
-5708.19
 20
4669.2825
  0
TEXT
  7
TextStyle03
  8
Éíû@
  6
CONTINUOUS
 10
-6788.75
 20
4705.0
  1
500
 40
300.0
 72
     5
 11
-6301.25
 21
4705.0
  0
ENDBLK
  0
BLOCK
  2
*GRP_0010
 70
    65
 10
0.0
 20
0.0
  0
LINE
  8
┌▓È4
 10
-19003.76375
 20
14765.23675
 11
-19003.76375
 21
15131.9035
  0
LINE
  8
┌▓È4
 10
-19087.09725
 20
14765.23675
 11
-19087.09725
 21
15131.9035
  0
LINE
  8
┌▓È4
 10
-19003.76375
 20
14765.23675
 11
-19087.09725
 21
14765.23675
  0
LINE
  8
┌▓È4
 10
-19003.76375
 20
15131.9035
 11
-19087.09725
 21
15131.9035
  0
ENDBLK
  0
BLOCK
  2
*GRP_0011
 70
    65
 10
0.0
 20
0.0
  0
LINE
  8
┌▓È4
 10
-16003.76375
 20
14765.23675
 11
-16003.76375
 21
15131.9035
  0
LINE
  8
┌▓È4
 10
-15920.4305
 20
14765.23675
 11
-15920.4305
 21
15131.9035
  0
LINE
  8
┌▓È4
 10
-16003.76375
 20
14765.23675
 11
-15920.4305
 21
14765.23675
  0
LINE
  8
┌▓È4
 10
-16003.76375
 20
15131.9035
 11
-15920.4305
 21
15131.9035
  0
ENDBLK
  0
BLOCK
  2
*DIM_0012
 70
    65
 10
0.0
 20
0.0
  0
LINE
  8
Éíû@
 10
-15170.4305
 20
12824.1175
 11
-15170.4305
 21
12224.1175
  0
LINE
  8
Éíû@
 10
-14337.09725
 20
12824.1175
 11
-14337.09725
 21
12224.1175
  0
LINE
  8
Éíû@
 10
-15170.4305
 20
12224.1175
 11
-14337.09725
 21
12224.1175
  0
POINT
  8
Éíû@
 10
-15170.4305
 20
12224.1175
  0
POINT
  8
Éíû@
 10
-14337.09725
 20
12224.1175
  0
TEXT
  7
TextStyle03
  8
Éíû@
  6
CONTINUOUS
 10
-14998.75
 20
12260.0
  1
250
 40
300.0
 72
     5
 11
-14511.25
 21
12260.0
  0
ENDBLK
  0
BLOCK
  2
*DIM_0013
 70
    65
 10
0.0
 20
0.0
  0
LINE
  8
Éíû@
 10
-14337.09725
 20
12824.1175
 11
-14337.09725
 21
12224.1175
  0
LINE
  8
Éíû@
 10
-12337.09725
 20
12824.1175
 11
-12337.09725
 21
12224.1175
  0
LINE
  8
Éíû@
 10
-14337.09725
 20
12224.1175
 11
-12337.09725
 21
12224.1175
  0
POINT
  8
Éíû@
 10
-14337.09725
 20
12224.1175
  0
POINT
  8
Éíû@
 10
-12337.09725
 20
12224.1175
  0
TEXT
  7
TextStyle03
  8
Éíû@
  6
CONTINUOUS
 10
-13378.75
 20
12257.5
  1
600
 40
300.0
 72
     5
 11
-12891.25
 21
12257.5
  0
ENDBLK
  0
BLOCK
  2
*GRP_0014
 70
    65
 10
0.0
 20
0.0
  0
POINT
  8
┌▓È15
 62
     0
 10
14372.94525
 20
-8397.675
  0
POLYLINE
  8
┌▓È15
  6
BYBLOCK
 62
     0
 66
     1
  0
VERTEX
  8
┌▓È15
 10
14372.94525
 20
-8397.675
  0
VERTEX
  8
┌▓È15
 10
14557.238
 20
-8219.704
  0
VERTEX
  8
┌▓È15
 10
14728.05725
 20
-8219.704
  0
SEQEND
  0
ENDBLK
  0
BLOCK
  2
*GRP_0015
 70
    65
 10
0.0
 20
0.0
  0
POINT
  8
┌▓È15
 62
     0
 10
14240.1395
 20
-9796.06475
  0
POLYLINE
  8
┌▓È15
  6
BYBLOCK
 62
     0
 66
     1
  0
VERTEX
  8
┌▓È15
 10
14240.1395
 20
-9796.06475
  0
VERTEX
  8
┌▓È15
 10
14424.43225
 20
-9618.09375
  0
VERTEX
  8
┌▓È15
 10
14595.2515
 20
-9618.09375
  0
SEQEND
  0
ENDBLK
  0
BLOCK
  2
*GRP_0016
 70
    65
 10
0.0
 20
0.0
  0
POINT
  8
┌▓È15
 62
     0
 10
14081.407
 20
-11255.8235
  0
POLYLINE
  8
┌▓È15
  6
BYBLOCK
 62
     0
 66
     1
  0
VERTEX
  8
┌▓È15
 10
14081.407
 20
-11255.8235
  0
VERTEX
  8
┌▓È15
 10
14265.69975
 20
-11077.8525
  0
VERTEX
  8
┌▓È15
 10
14436.519
 20
-11077.8525
  0
SEQEND
  0
ENDBLK
  0
BLOCK
  2
*GRP_0017
 70
    65
 10
0.0
 20
0.0
  0
POINT
  8
┌▓È15
 62
     0
 10
12723.2835
 20
-8367.27275
  0
POLYLINE
  8
┌▓È15
  6
BYBLOCK
 62
     0
 66
     1
  0
VERTEX
  8
┌▓È15
 10
12723.2835
 20
-8367.27275
  0
VERTEX
  8
┌▓È15
 10
12538.99075
 20
-8189.30175
  0
VERTEX
  8
┌▓È15
 10
12462.88
 20
-8189.30175
  0
SEQEND
  0
ENDBLK
  0
BLOCK
  2
*GRP_0018
 70
    65
 10
0.0
 20
0.0
  0
POINT
  8
┌▓È15
 62
     0
 10
13828.99525
 20
-11253.646
  0
POLYLINE
  8
┌▓È15
  6
BYBLOCK
 62
     0
 66
     1
  0
VERTEX
  8
┌▓È15
 10
13828.99525
 20
-11253.646
  0
VERTEX
  8
┌▓È15
 10
13386.49975
 20
-10811.1505
  0
VERTEX
  8
┌▓È15
 10
12662.23675
 20
-10811.1505
  0
SEQEND
  0
ENDBLK
  0
BLOCK
  2
*GRP_0019
 70
    65
 10
0.0
 20
0.0
  0
POINT
  8
┌▓È15
 62
     0
 10
13868.6835
 20
-10129.8005
  0
POLYLINE
  8
┌▓È15
  6
BYBLOCK
 62
     0
 66
     1
  0
VERTEX
  8
┌▓È15
 10
13868.19475
 20
-10129.90025
  0
VERTEX
  8
┌▓È15
 10
13425.69925
 20
-9687.40475
  0
VERTEX
  8
┌▓È15
 10
12701.43625
 20
-9687.40475
  0
SEQEND
  0
ENDBLK
  0
BLOCK
  2
*GRP_0020
 70
    65
 10
0.0
 20
0.0
  0
POINT
  8
┌▓È15
 62
     0
 10
13702.0705
 20
-8379.04575
  0
POLYLINE
  8
┌▓È15
  6
BYBLOCK
 62
     0
 66
     1
  0
VERTEX
  8
┌▓È15
 10
13701.58175
 20
-8379.1455
  0
VERTEX
  8
┌▓È15
 10
13126.687
 20
-7769.2825
  0
VERTEX
  8
┌▓È15
 10
12402.424
 20
-7769.2825
  0
SEQEND
  0
ENDBLK
  0
BLOCK
  2
*GRP_0021
 70
    65
 10
0.0
 20
0.0
  0
POINT
  8
┌▓È15
 62
     0
 10
3227.10075
 20
-8367.27275
  0
POLYLINE
  8
┌▓È15
  6
BYBLOCK
 62
     0
 66
     1
  0
VERTEX
  8
┌▓È15
 10
3227.10075
 20
-8367.27275
  0
VERTEX
  8
┌▓È15
 10
3042.808
 20
-8189.30175
  0
VERTEX
  8
┌▓È15
 10
2966.69725
 20
-8189.30175
  0
SEQEND
  0
ENDBLK
  0
BLOCK
  2
*GRP_0022
 70
    65
 10
0.0
 20
0.0
  0
POINT
  8
┌▓È15
 62
     0
 10
4876.7625
 20
-8397.675
  0
POLYLINE
  8
┌▓È15
  6
BYBLOCK
 62
     0
 66
     1
  0
VERTEX
  8
┌▓È15
 10
4876.7625
 20
-8397.675
  0
VERTEX
  8
┌▓È15
 10
5061.05525
 20
-8219.704
  0
VERTEX
  8
┌▓È15
 10
5231.8745
 20
-8219.704
  0
SEQEND
  0
ENDBLK
  0
BLOCK
  2
*GRP_0023
 70
    65
 10
0.0
 20
0.0
  0
POINT
  8
┌▓È15
 62
     0
 10
4705.96125
 20
-10549.259
  0
POLYLINE
  8
┌▓È15
  6
BYBLOCK
 62
     0
 66
     1
  0
VERTEX
  8
┌▓È15
 10
4705.96125
 20
-10549.259
  0
VERTEX
  8
┌▓È15
 10
4890.254
 20
-10371.288
  0
VERTEX
  8
┌▓È15
 10
5061.07325
 20
-10371.288
  0
SEQEND
  0
ENDBLK
  0
BLOCK
  2
*GRP_0024
 70
    65
 10
0.0
 20
0.0
  0
POINT
  8
┌▓È15
 62
     0
 10
4205.88775
 20
-8379.04575
  0
POLYLINE
  8
┌▓È15
  6
BYBLOCK
 62
     0
 66
     1
  0
VERTEX
  8
┌▓È15
 10
4205.399
 20
-8379.1455
  0
VERTEX
  8
┌▓È15
 10
3630.50425
 20
-7769.2825
  0
VERTEX
  8
┌▓È15
 10
2906.24125
 20
-7769.2825
  0
SEQEND
  0
ENDBLK
  0
BLOCK
  2
*DIM_0025
 70
    65
 10
0.0
 20
0.0
  0
LINE
  8
Éíû@
 10
16863.52825
 20
-11369.04575
 11
17463.52825
 21
-11369.04575
  0
LINE
  8
Éíû@
 10
16863.52825
 20
-8369.04575
 11
17463.52825
 21
-8369.04575
  0
LINE
  8
Éíû@
 10
17463.52825
 20
-11369.04575
 11
17463.52825
 21
-8369.04575
  0
POINT
  8
Éíû@
 10
17463.52825
 20
-11369.04575
  0
POINT
  8
Éíû@
 10
17463.52825
 20
-8369.04575
  0
TEXT
  7
TextStyle03
  8
Éíû@
  6
CONTINUOUS
 10
17420.0
 20
-10113.75
  1
900
 40
300.0
 50
90.0
 72
     5
 11
17420.0
 21
-9626.25
  0
ENDBLK
  0
BLOCK
  2
*DIM_0026
 70
    65
 10
0.0
 20
0.0
  0
LINE
  8
Éíû@
 10
14218.19475
 20
-11755.0
 11
14218.19475
 21
-12355.0
  0
LINE
  8
Éíû@
 10
14384.8615
 20
-11755.0
 11
14384.8615
 21
-12355.0
  0
LINE
  8
Éíû@
 10
14218.19475
 20
-12355.0
 11
14384.8615
 21
-12355.0
  0
POINT
  8
Éíû@
 10
14384.8615
 20
-12355.0
  0
TEXT
  7
TextStyle03
  8
Éíû@
  6
CONTINUOUS
 10
14420.625
 20
-12320.0
  1
50
 40
300.0
 72
     5
 11
14739.375
 21
-12320.0
  0
ENDBLK
  0
BLOCK
  2
*DIM_0027
 70
    65
 10
0.0
 20
0.0
  0
LINE
  8
Éíû@
 10
12718.195
 20
-11755.0
 11
12718.195
 21
-12355.0
  0
LINE
  8
Éíû@
 10
14218.19475
 20
-11755.0
 11
14218.19475
 21
-12355.0
  0
LINE
  8
Éíû@
 10
12718.195
 20
-12355.0
 11
14218.19475
 21
-12355.0
  0
POINT
  8
Éíû@
 10
12718.195
 20
-12355.0
  0
POINT
  8
Éíû@
 10
14218.19475
 20
-12355.0
  0
TEXT
  7
TextStyle03
  8
Éíû@
  6
CONTINUOUS
 10
13223.75
 20
-12317.5
  1
450
 40
300.0
 72
     5
 11
13711.25
 21
-12317.5
  0
ENDBLK
  0
BLOCK
  2
*DIM_0028
 70
    65
 10
0.0
 20
0.0
  0
LINE
  8
Éíû@
 10
12718.195
 20
-12355.0
 11
12718.195
 21
-12955.0
  0
LINE
  8
Éíû@
 10
14384.8615
 20
-12355.0
 11
14384.8615
 21
-12955.0
  0
LINE
  8
Éíû@
 10
12718.195
 20
-12955.0
 11
14384.8615
 21
-12955.0
  0
POINT
  8
Éíû@
 10
12718.195
 20
-12955.0
  0
POINT
  8
Éíû@
 10
14384.8615
 20
-12955.0
  0
TEXT
  7
TextStyle03
  8
Éíû@
  6
CONTINUOUS
 10
13306.25
 20
-12917.5
  1
500
 40
300.0
 72
     5
 11
13793.75
 21
-12917.5
  0
ENDBLK
  0
BLOCK
  2
*DIM_0029
 70
    65
 10
0.0
 20
0.0
  0
LINE
  8
Éíû@
 10
3388.679
 20
-11755.0
 11
3388.679
 21
-12355.0
  0
LINE
  8
Éíû@
 10
3222.01225
 20
-11755.0
 11
3222.01225
 21
-12355.0
  0
LINE
  8
Éíû@
 10
3388.679
 20
-12355.0
 11
3222.01225
 21
-12355.0
  0
POINT
  8
Éíû@
 10
3388.679
 20
-12355.0
  0
POINT
  8
Éíû@
 10
3222.01225
 20
-12355.0
  0
TEXT
  7
TextStyle03
  8
Éíû@
  6
CONTINUOUS
 10
2885.625
 20
-12317.5
  1
50
 40
300.0
 72
     5
 11
3204.375
 21
-12317.5
  0
ENDBLK
  0
BLOCK
  2
*DIM_0030
 70
    65
 10
0.0
 20
0.0
  0
LINE
  8
Éíû@
 10
3388.679
 20
-11755.0
 11
3388.679
 21
-12355.0
  0
LINE
  8
Éíû@
 10
4722.012
 20
-11755.0
 11
4722.012
 21
-12355.0
  0
LINE
  8
Éíû@
 10
3388.679
 20
-12355.0
 11
4722.012
 21
-12355.0
  0
POINT
  8
Éíû@
 10
3388.679
 20
-12355.0
  0
POINT
  8
Éíû@
 10
4722.012
 20
-12355.0
  0
TEXT
  7
TextStyle03
  8
Éíû@
  6
CONTINUOUS
 10
3811.25
 20
-12317.5
  1
400
 40
300.0
 72
     5
 11
4298.75
 21
-12317.5
  0
ENDBLK
  0
BLOCK
  2
*DIM_0031
 70
    65
 10
0.0
 20
0.0
  0
LINE
  8
Éíû@
 10
3222.01225
 20
-12355.0
 11
3222.01225
 21
-12955.0
  0
LINE
  8
Éíû@
 10
4888.67875
 20
-12355.0
 11
4888.67875
 21
-12955.0
  0
LINE
  8
Éíû@
 10
3222.01225
 20
-12955.0
 11
4888.67875
 21
-12955.0
  0
POINT
  8
Éíû@
 10
3222.01225
 20
-12955.0
  0
POINT
  8
Éíû@
 10
4888.67875
 20
-12955.0
  0
TEXT
  7
TextStyle03
  8
Éíû@
  6
CONTINUOUS
 10
3811.25
 20
-12917.5
  1
500
 40
300.0
 72
     5
 11
4298.75
 21
-12917.5
  0
ENDBLK
  0
BLOCK
  2
*DIM_0032
 70
    65
 10
0.0
 20
0.0
  0
LINE
  8
Éíû@
 10
8352.74225
 20
-11369.04575
 11
8952.74225
 21
-11369.04575
  0
LINE
  8
Éíû@
 10
8352.74225
 20
-8369.04575
 11
8952.74225
 21
-8369.04575
  0
LINE
  8
Éíû@
 10
8952.74225
 20
-11369.04575
 11
8952.74225
 21
-8369.04575
  0
POINT
  8
Éíû@
 10
8952.74225
 20
-11369.04575
  0
POINT
  8
Éíû@
 10
8952.74225
 20
-8369.04575
  0
TEXT
  7
TextStyle03
  8
Éíû@
  6
CONTINUOUS
 10
8912.5
 20
-10111.25
  1
900
 40
300.0
 50
90.0
 72
     5
 11
8912.5
 21
-9623.75
  0
ENDBLK
  0
BLOCK
  2
*DIM_0033
 70
    65
 10
0.0
 20
0.0
  0
LINE
  8
Éíû@
 10
7752.74225
 20
-11369.04575
 11
8352.74225
 21
-11369.04575
  0
LINE
  8
Éíû@
 10
7752.74225
 20
-10369.04575
 11
8352.74225
 21
-10369.04575
  0
LINE
  8
Éíû@
 10
8352.74225
 20
-11369.04575
 11
8352.74225
 21
-10369.04575
  0
POINT
  8
Éíû@
 10
8352.74225
 20
-11369.04575
  0
POINT
  8
Éíû@
 10
8352.74225
 20
-10369.04575
  0
TEXT
  7
TextStyle03
  8
Éíû@
  6
CONTINUOUS
 10
8312.5
 20
-11111.25
  1
300
 40
300.0
 50
90.0
 72
     5
 11
8312.5
 21
-10623.75
  0
ENDBLK
  0
BLOCK
  2
*DIM_0034
 70
    65
 10
0.0
 20
0.0
  0
LINE
  8
Éíû@
 10
7752.74225
 20
-10369.04575
 11
8352.74225
 21
-10369.04575
  0
LINE
  8
Éíû@
 10
7752.74225
 20
-9369.04575
 11
8352.74225
 21
-9369.04575
  0
LINE
  8
Éíû@
 10
8352.74225
 20
-10369.04575
 11
8352.74225
 21
-9369.04575
  0
POINT
  8
Éíû@
 10
8352.74225
 20
-10369.04575
  0
POINT
  8
Éíû@
 10
8352.74225
 20
-9369.04575
  0
TEXT
  7
TextStyle03
  8
Éíû@
  6
CONTINUOUS
 10
8312.5
 20
-10111.25
  1
300
 40
300.0
 50
90.0
 72
     5
 11
8312.5
 21
-9623.75
  0
ENDBLK
  0
BLOCK
  2
*DIM_0035
 70
    65
 10
0.0
 20
0.0
  0
LINE
  8
Éíû@
 10
7752.74225
 20
-9369.04575
 11
8352.74225
 21
-9369.04575
  0
LINE
  8
Éíû@
 10
7752.74225
 20
-8369.04575
 11
8352.74225
 21
-8369.04575
  0
LINE
  8
Éíû@
 10
8352.74225
 20
-9369.04575
 11
8352.74225
 21
-8369.04575
  0
POINT
  8
Éíû@
 10
8352.74225
 20
-9369.04575
  0
POINT
  8
Éíû@
 10
8352.74225
 20
-8369.04575
  0
TEXT
  7
TextStyle03
  8
Éíû@
  6
CONTINUOUS
 10
8312.5
 20
-9111.25
  1
300
 40
300.0
 50
90.0
 72
     5
 11
8312.5
 21
-8623.75
  0
ENDBLK
  0
BLOCK
  2
*GRP_0036
 70
    65
 10
0.0
 20
0.0
  0
POINT
  8
┌▓È15
 62
     0
 10
-8026.97625
 20
-9205.015
  0
POLYLINE
  8
┌▓È15
  6
BYBLOCK
 62
     0
 66
     1
  0
VERTEX
  8
┌▓È15
 10
-8026.97625
 20
-9205.015
  0
VERTEX
  8
┌▓È15
 10
-6782.9235
 20
-7828.9695
  0
VERTEX
  8
┌▓È15
 10
-6475.32725
 20
-7828.9695
  0
SEQEND
  0
ENDBLK
  0
BLOCK
  2
*DIM_0037
 70
    65
 10
0.0
 20
0.0
  0
LINE
  8
Éíû@
 10
-24634.9065
 20
-2173.234
 11
-25234.9065
 21
-2173.234
  0
LINE
  8
Éíû@
 10
-24634.9065
 20
-3139.90075
 11
-25234.9065
 21
-3139.90075
  0
LINE
  8
Éíû@
 10
-25234.9065
 20
-2173.234
 11
-25234.9065
 21
-3139.90075
  0
POINT
  8
Éíû@
 10
-25234.9065
 20
-2173.234
  0
POINT
  8
Éíû@
 10
-25234.9065
 20
-3139.90075
  0
TEXT
  7
TextStyle03
  8
Éíû@
  6
CONTINUOUS
 10
-25272.5
 20
-2901.25
  1
290
 40
300.0
 50
90.0
 72
     5
 11
-25272.5
 21
-2413.75
  0
ENDBLK
  0
BLOCK
  2
*DIM_0038
 70
    65
 10
0.0
 20
0.0
  0
LINE
  8
Éíû@
 10
-24634.9065
 20
-4806.56725
 11
-25234.9065
 21
-4806.56725
  0
LINE
  8
Éíû@
 10
-25234.9065
 20
-3139.90075
 11
-25234.9065
 21
-4806.56725
  0
POINT
  8
Éíû@
 10
-25234.9065
 20
-4806.56725
  0
TEXT
  7
TextStyle03
  8
Éíû@
  6
CONTINUOUS
 10
-25272.5
 20
-4218.75
  1
500
 40
300.0
 50
90.0
 72
     5
 11
-25272.5
 21
-3731.25
  0
ENDBLK
  0
BLOCK
  2
*DIM_0039
 70
    65
 10
0.0
 20
0.0
  0
LINE
  8
Éíû@
 10
-22492.848
 20
-651.951
 11
-22492.848
 21
-51.951
  0
LINE
  8
Éíû@
 10
-3617.3925
 20
-651.951
 11
-3617.3925
 21
-51.951
  0
LINE
  8
Éíû@
 10
-22492.848
 20
-51.951
 11
-3617.3925
 21
-51.951
  0
POINT
  8
Éíû@
 10
-22492.848
 20
-51.951
  0
POINT
  8
Éíû@
 10
-3617.3925
 20
-51.951
  0
TEXT
  7
TextStyle03
  8
Éíû@
  6
CONTINUOUS
 10
-13470.0
 20
-15.0
  1
5,663
 40
300.0
 72
     5
 11
-12645.0
 21
-15.0
  0
ENDBLK
  0
BLOCK
  2
*DIM_0040
 70
    65
 10
0.0
 20
0.0
  0
LINE
  8
Éíû@
 10
-3617.3925
 20
-1251.951
 11
-3617.3925
 21
-651.951
  0
LINE
  8
Éíû@
 10
-5284.05925
 20
-1251.951
 11
-5284.05925
 21
-651.951
  0
LINE
  8
Éíû@
 10
-3617.3925
 20
-651.951
 11
-5284.05925
 21
-651.951
  0
POINT
  8
Éíû@
 10
-3617.3925
 20
-651.951
  0
POINT
  8
Éíû@
 10
-5284.05925
 20
-651.951
  0
TEXT
  7
TextStyle03
  8
Éíû@
  6
CONTINUOUS
 10
-4696.25
 20
-615.0
  1
500
 40
300.0
 72
     5
 11
-4208.75
 21
-615.0
  0
ENDBLK
  0
BLOCK
  2
*DIM_0041
 70
    65
 10
0.0
 20
0.0
  0
LINE
  8
Éíû@
 10
-9950.726
 20
-1251.951
 11
-9950.726
 21
-651.951
  0
LINE
  8
Éíû@
 10
-5284.05925
 20
-651.951
 11
-9950.726
 21
-651.951
  0
POINT
  8
Éíû@
 10
-9950.726
 20
-651.951
  0
TEXT
  7
TextStyle03
  8
Éíû@
  6
CONTINUOUS
 10
-8030.0
 20
-615.0
  1
1,400
 40
300.0
 72
     5
 11
-7205.0
 21
-615.0
  0
ENDBLK
  0
BLOCK
  2
*DIM_0042
 70
    65
 10
0.0
 20
0.0
  0
LINE
  8
Éíû@
 10
-16617.39275
 20
-1251.951
 11
-16617.39275
 21
-651.951
  0
LINE
  8
Éíû@
 10
-11950.726
 20
-651.951
 11
-16617.39275
 21
-651.951
  0
POINT
  8
Éíû@
 10
-16617.39275
 20
-651.951
  0
TEXT
  7
TextStyle03
  8
Éíû@
  6
CONTINUOUS
 10
-14697.5
 20
-615.0
  1
1,400
 40
300.0
 72
     5
 11
-13872.5
 21
-615.0
  0
ENDBLK
  0
BLOCK
  2
*DIM_0043
 70
    65
 10
0.0
 20
0.0
  0
LINE
  8
Éíû@
 10
-24079.22425
 20
-9369.04575
 11
-24679.22425
 21
-9369.04575
  0
LINE
  8
Éíû@
 10
-24079.22425
 20
-8369.04575
 11
-24679.22425
 21
-8369.04575
  0
LINE
  8
Éíû@
 10
-24679.22425
 20
-9369.04575
 11
-24679.22425
 21
-8369.04575
  0
POINT
  8
Éíû@
 10
-24679.22425
 20
-9369.04575
  0
POINT
  8
Éíû@
 10
-24679.22425
 20
-8369.04575
  0
TEXT
  7
TextStyle03
  8
Éíû@
  6
CONTINUOUS
 10
-24717.5
 20
-9113.75
  1
300
 40
300.0
 50
90.0
 72
     5
 11
-24717.5
 21
-8626.25
  0
ENDBLK
  0
BLOCK
  2
*DIM_0044
 70
    65
 10
0.0
 20
0.0
  0
LINE
  8
Éíû@
 10
-24679.22425
 20
-11369.04575
 11
-25279.22425
 21
-11369.04575
  0
LINE
  8
Éíû@
 10
-24679.22425
 20
-8369.04575
 11
-25279.22425
 21
-8369.04575
  0
LINE
  8
Éíû@
 10
-25279.22425
 20
-11369.04575
 11
-25279.22425
 21
-8369.04575
  0
POINT
  8
Éíû@
 10
-25279.22425
 20
-11369.04575
  0
POINT
  8
Éíû@
 10
-25279.22425
 20
-8369.04575
  0
TEXT
  7
TextStyle03
  8
Éíû@
  6
CONTINUOUS
 10
-25317.5
 20
-10113.75
  1
900
 40
300.0
 50
90.0
 72
     5
 11
-25317.5
 21
-9626.25
  0
ENDBLK
  0
BLOCK
  2
*DIM_0045
 70
    65
 10
0.0
 20
0.0
  0
LINE
  8
Éíû@
 10
-24079.22425
 20
-10369.04575
 11
-24679.22425
 21
-10369.04575
  0
LINE
  8
Éíû@
 10
-24079.22425
 20
-9369.04575
 11
-24679.22425
 21
-9369.04575
  0
LINE
  8
Éíû@
 10
-24679.22425
 20
-10369.04575
 11
-24679.22425
 21
-9369.04575
  0
POINT
  8
Éíû@
 10
-24679.22425
 20
-10369.04575
  0
POINT
  8
Éíû@
 10
-24679.22425
 20
-9369.04575
  0
TEXT
  7
TextStyle03
  8
Éíû@
  6
CONTINUOUS
 10
-24717.5
 20
-10113.75
  1
300
 40
300.0
 50
90.0
 72
     5
 11
-24717.5
 21
-9626.25
  0
ENDBLK
  0
BLOCK
  2
*DIM_0046
 70
    65
 10
0.0
 20
0.0
  0
LINE
  8
Éíû@
 10
-2515.9395
 20
-1473.234
 11
-1915.9395
 21
-1473.234
  0
LINE
  8
Éíû@
 10
-2515.9395
 20
-3139.90075
 11
-1915.9395
 21
-3139.90075
  0
LINE
  8
Éíû@
 10
-1915.9395
 20
-1473.234
 11
-1915.9395
 21
-3139.90075
  0
POINT
  8
Éíû@
 10
-1915.9395
 20
-1473.234
  0
POINT
  8
Éíû@
 10
-1915.9395
 20
-3139.90075
  0
TEXT
  7
TextStyle03
  8
Éíû@
  6
CONTINUOUS
 10
-1952.5
 20
-2551.25
  1
500
 40
300.0
 50
90.0
 72
     5
 11
-1952.5
 21
-2063.75
  0
ENDBLK
  0
BLOCK
  2
*DIM_0047
 70
    65
 10
0.0
 20
0.0
  0
LINE
  8
Éíû@
 10
-2515.9395
 20
-4806.56725
 11
-1915.9395
 21
-4806.56725
  0
LINE
  8
Éíû@
 10
-1915.9395
 20
-3139.90075
 11
-1915.9395
 21
-4806.56725
  0
POINT
  8
Éíû@
 10
-1915.9395
 20
-4806.56725
  0
TEXT
  7
TextStyle03
  8
Éíû@
  6
CONTINUOUS
 10
-1952.5
 20
-4218.75
  1
500
 40
300.0
 50
90.0
 72
     5
 11
-1952.5
 21
-3731.25
  0
ENDBLK
  0
BLOCK
  2
*DIM_0048
 70
    65
 10
0.0
 20
0.0
  0
LINE
  8
Éíû@
 10
-1920.57875
 20
-1473.234
 11
-1320.57875
 21
-1473.234
  0
LINE
  8
Éíû@
 10
-1920.57875
 20
-4806.56725
 11
-1320.57875
 21
-4806.56725
  0
LINE
  8
Éíû@
 10
-1320.57875
 20
-1473.234
 11
-1320.57875
 21
-4806.56725
  0
POINT
  8
Éíû@
 10
-1320.57875
 20
-1473.234
  0
POINT
  8
Éíû@
 10
-1320.57875
 20
-4806.56725
  0
TEXT
  7
TextStyle03
  8
Éíû@
  6
CONTINUOUS
 10
-1355.0
 20
-3552.5
  1
1,000
 40
300.0
 50
90.0
 72
     5
 11
-1355.0
 21
-2727.5
  0
ENDBLK
  0
BLOCK
  2
*DIM_0049
 70
    65
 10
0.0
 20
0.0
  0
LINE
  8
Éíû@
 10
-14337.0975
 20
5269.2825
 11
-14337.0975
 21
4669.2825
  0
LINE
  8
Éíû@
 10
-12336.85775
 20
5269.2825
 11
-12336.85775
 21
4669.2825
  0
LINE
  8
Éíû@
 10
-14337.0975
 20
4669.2825
 11
-12336.85775
 21
4669.2825
  0
POINT
  8
Éíû@
 10
-14337.0975
 20
4669.2825
  0
POINT
  8
Éíû@
 10
-12336.85775
 20
4669.2825
  0
TEXT
  7
TextStyle03
  8
Éíû@
  6
CONTINUOUS
 10
-13581.25
 20
4705.0
  1
600
 40
300.0
 72
     5
 11
-13093.75
 21
4705.0
  0
ENDBLK
  0
BLOCK
  2
*DIM_0050
 70
    65
 10
0.0
 20
0.0
  0
LINE
  8
Éíû@
 10
-21054.9185
 20
5269.2825
 11
-21054.9185
 21
4669.2825
  0
LINE
  8
Éíû@
 10
-19054.67875
 20
5269.2825
 11
-19054.67875
 21
4669.2825
  0
LINE
  8
Éíû@
 10
-21054.9185
 20
4669.2825
 11
-19054.67875
 21
4669.2825
  0
POINT
  8
Éíû@
 10
-21054.9185
 20
4669.2825
  0
POINT
  8
Éíû@
 10
-19054.67875
 20
4669.2825
  0
TEXT
  7
TextStyle03
  8
Éíû@
  6
CONTINUOUS
 10
-20298.75
 20
4705.0
  1
600
 40
300.0
 72
     5
 11
-19811.25
 21
4705.0
  0
ENDBLK
  0
BLOCK
  2
*GRP_0051
 70
    65
 10
0.0
 20
0.0
  0
LINE
  8
┌▓È4
 10
-14337.09725
 20
15131.90325
 11
-14337.09725
 21
13431.90325
  0
LINE
  8
┌▓È4
 10
-14420.4305
 20
15131.90325
 11
-14420.4305
 21
13431.90325
  0
LINE
  8
┌▓È4
 10
-14337.09725
 20
15131.90325
 11
-14420.4305
 21
15131.90325
  0
LINE
  8
┌▓È4
 10
-14337.09725
 20
13431.90325
 11
-14420.4305
 21
13431.90325
  0
ENDBLK
  0
BLOCK
  2
*GRP_0052
 70
    65
 10
0.0
 20
0.0
  0
LINE
  8
┌▓È4
 10
-12337.09725
 20
15131.90325
 11
-12337.09725
 21
13432.84075
  0
LINE
  8
┌▓È4
 10
-12253.76375
 20
15131.90325
 11
-12253.76375
 21
13432.84075
  0
LINE
  8
┌▓È4
 10
-12337.09725
 20
15131.90325
 11
-12253.76375
 21
15131.90325
  0
LINE
  8
┌▓È4
 10
-12337.09725
 20
13432.84075
 11
-12253.76375
 21
13432.84075
  0
ENDBLK
  0
BLOCK
  2
*DIM_0053
 70
    65
 10
0.0
 20
0.0
  0
LINE
  8
Éíû@
 10
-11859.19425
 20
13431.90325
 11
-11059.19425
 21
13431.90325
  0
LINE
  8
Éíû@
 10
-11859.19425
 20
15098.57
 11
-11059.19425
 21
15098.57
  0
LINE
  8
Éíû@
 10
-11059.19425
 20
13431.90325
 11
-11059.19425
 21
15098.57
  0
POINT
  8
Éíû@
 10
-11059.19425
 20
13431.90325
  0
POINT
  8
Éíû@
 10
-11059.19425
 20
15098.57
  0
TEXT
  7
TextStyle03
  8
Éíû@
  6
CONTINUOUS
 10
-11097.5
 20
13940.0
  1
500
 40
400.0
 50
90.0
 72
     5
 11
-11097.5
 21
14590.0
  0
ENDBLK
  0
BLOCK
  2
*DIM_0054
 70
    65
 10
0.0
 20
0.0
  0
LINE
  8
Éíû@
 10
3290.6345
 20
-651.951
 11
3290.6345
 21
-51.951
  0
LINE
  8
Éíû@
 10
22166.09
 20
-651.951
 11
22166.09
 21
-51.951
  0
LINE
  8
Éíû@
 10
3290.6345
 20
-51.951
 11
22166.09
 21
-51.951
  0
POINT
  8
Éíû@
 10
3290.6345
 20
-51.951
  0
POINT
  8
Éíû@
 10
22166.09
 20
-51.951
  0
TEXT
  7
TextStyle03
  8
Éíû@
  6
CONTINUOUS
 10
12312.5
 20
-15.0
  1
5,663
 40
300.0
 72
     5
 11
13137.5
 21
-15.0
  0
ENDBLK
  0
BLOCK
  2
*DIM_0055
 70
    65
 10
0.0
 20
0.0
  0
LINE
  8
Éíû@
 10
23267.543
 20
-1473.234
 11
23867.543
 21
-1473.234
  0
LINE
  8
Éíû@
 10
23267.543
 20
-3139.90075
 11
23867.543
 21
-3139.90075
  0
LINE
  8
Éíû@
 10
23867.543
 20
-1473.234
 11
23867.543
 21
-3139.90075
  0
POINT
  8
Éíû@
 10
23867.543
 20
-1473.234
  0
POINT
  8
Éíû@
 10
23867.543
 20
-3139.90075
  0
TEXT
  7
TextStyle03
  8
Éíû@
  6
CONTINUOUS
 10
23830.0
 20
-2551.25
  1
500
 40
300.0
 50
90.0
 72
     5
 11
23830.0
 21
-2063.75
  0
ENDBLK
  0
BLOCK
  2
*DIM_0056
 70
    65
 10
0.0
 20
0.0
  0
LINE
  8
Éíû@
 10
23267.543
 20
-4806.56725
 11
23867.543
 21
-4806.56725
  0
LINE
  8
Éíû@
 10
23867.543
 20
-3139.90075
 11
23867.543
 21
-4806.56725
  0
POINT
  8
Éíû@
 10
23867.543
 20
-4806.56725
  0
TEXT
  7
TextStyle03
  8
Éíû@
  6
CONTINUOUS
 10
23830.0
 20
-4218.75
  1
500
 40
300.0
 50
90.0
 72
     5
 11
23830.0
 21
-3731.25
  0
ENDBLK
  0
BLOCK
  2
*DIM_0057
 70
    65
 10
0.0
 20
0.0
  0
LINE
  8
Éíû@
 10
23862.90375
 20
-1473.234
 11
24462.90375
 21
-1473.234
  0
LINE
  8
Éíû@
 10
23862.90375
 20
-4806.56725
 11
24462.90375
 21
-4806.56725
  0
LINE
  8
Éíû@
 10
24462.90375
 20
-1473.234
 11
24462.90375
 21
-4806.56725
  0
POINT
  8
Éíû@
 10
24462.90375
 20
-1473.234
  0
POINT
  8
Éíû@
 10
24462.90375
 20
-4806.56725
  0
TEXT
  7
TextStyle03
  8
Éíû@
  6
CONTINUOUS
 10
24427.5
 20
-3552.5
  1
1,000
 40
300.0
 50
90.0
 72
     5
 11
24427.5
 21
-2727.5
  0
ENDBLK
  0
BLOCK
  2
*DIM_0058
 70
    65
 10
0.0
 20
0.0
  0
LINE
  8
Éíû@
 10
22166.09
 20
-1251.951
 11
22166.09
 21
-651.951
  0
LINE
  8
Éíû@
 10
15666.09
 20
-1251.951
 11
15666.09
 21
-651.951
  0
LINE
  8
Éíû@
 10
22166.09
 20
-651.951
 11
15666.09
 21
-651.951
  0
POINT
  8
Éíû@
 10
22166.09
 20
-651.951
  0
POINT
  8
Éíû@
 10
15666.09
 20
-651.951
  0
TEXT
  7
TextStyle03
  8
Éíû@
  6
CONTINUOUS
 10
18502.5
 20
-615.0
  1
1,950
 40
300.0
 72
     5
 11
19327.5
 21
-615.0
  0
ENDBLK
  0
BLOCK
  2
*DIM_0059
 70
    65
 10
0.0
 20
0.0
  0
LINE
  8
Éíû@
 10
8999.42325
 20
-1251.951
 11
8999.42325
 21
-651.951
  0
LINE
  8
Éíû@
 10
15666.09
 20
-651.951
 11
8999.42325
 21
-651.951
  0
POINT
  8
Éíû@
 10
8999.42325
 20
-651.951
  0
TEXT
  7
TextStyle03
  8
Éíû@
  6
CONTINUOUS
 10
11920.0
 20
-615.0
  1
2,000
 40
300.0
 72
     5
 11
12745.0
 21
-615.0
  0
ENDBLK
  0
BLOCK
  2
*DIM_0060
 70
    65
 10
0.0
 20
0.0
  0
LINE
  8
Éíû@
 10
3289.42325
 20
-1251.951
 11
3289.42325
 21
-651.951
  0
LINE
  8
Éíû@
 10
8999.42325
 20
-651.951
 11
3289.42325
 21
-651.951
  0
POINT
  8
Éíû@
 10
3289.42325
 20
-651.951
  0
TEXT
  7
TextStyle03
  8
Éíû@
  6
CONTINUOUS
 10
5730.0
 20
-615.0
  1
1,713
 40
300.0
 72
     5
 11
6555.0
 21
-615.0
  0
ENDBLK
  0
BLOCK
  2
*DIM_0061
 70
    65
 10
0.0
 20
0.0
  0
LINE
  8
Éíû@
 10
-11950.726
 20
-1251.951
 11
-11950.726
 21
-651.951
  0
LINE
  8
Éíû@
 10
-10284.05925
 20
-1251.951
 11
-10284.05925
 21
-651.951
  0
LINE
  8
Éíû@
 10
-11950.726
 20
-651.951
 11
-10284.05925
 21
-651.951
  0
POINT
  8
Éíû@
 10
-11950.726
 20
-651.951
  0
POINT
  8
Éíû@
 10
-10284.05925
 20
-651.951
  0
TEXT
  7
TextStyle03
  8
Éíû@
  6
CONTINUOUS
 10
-11361.25
 20
-615.0
  1
500
 40
300.0
 72
     5
 11
-10873.75
 21
-615.0
  0
ENDBLK
  0
BLOCK
  2
*DIM_0062
 70
    65
 10
0.0
 20
0.0
  0
LINE
  8
Éíû@
 10
-9950.726
 20
-1251.951
 11
-9950.726
 21
-651.951
  0
LINE
  8
Éíû@
 10
-10284.05925
 20
-651.951
 11
-9950.726
 21
-651.951
  0
POINT
  8
Éíû@
 10
-9950.726
 20
-651.951
  0
TEXT
  7
TextStyle03
  8
Éíû@
  6
CONTINUOUS
 10
-10361.25
 20
-615.0
  1
100
 40
300.0
 72
     5
 11
-9873.75
 21
-615.0
  0
ENDBLK
  0
BLOCK
  2
*DIM_0063
 70
    65
 10
0.0
 20
0.0
  0
LINE
  8
Éíû@
 10
-19950.726
 20
-1251.951
 11
-19950.726
 21
-651.951
  0
LINE
  8
Éíû@
 10
-22492.848
 20
-1251.951
 11
-22492.848
 21
-651.951
  0
LINE
  8
Éíû@
 10
-19950.726
 20
-651.951
 11
-22492.848
 21
-651.951
  0
POINT
  8
Éíû@
 10
-19950.726
 20
-651.951
  0
POINT
  8
Éíû@
 10
-22492.848
 20
-651.951
  0
TEXT
  7
TextStyle03
  8
Éíû@
  6
CONTINUOUS
 10
-21466.25
 20
-615.0
  1
763
 40
300.0
 72
     5
 11
-20978.75
 21
-615.0
  0
ENDBLK
  0
BLOCK
  2
*DIM_0064
 70
    65
 10
0.0
 20
0.0
  0
LINE
  8
Éíû@
 10
-16617.39275
 20
-1251.951
 11
-16617.39275
 21
-651.951
  0
LINE
  8
Éíû@
 10
-16950.726
 20
-1251.951
 11
-16950.726
 21
-651.951
  0
LINE
  8
Éíû@
 10
-16617.39275
 20
-651.951
 11
-16950.726
 21
-651.951
  0
POINT
  8
Éíû@
 10
-16617.39275
 20
-651.951
  0
POINT
  8
Éíû@
 10
-16950.726
 20
-651.951
  0
TEXT
  7
TextStyle03
  8
Éíû@
  6
CONTINUOUS
 10
-17028.75
 20
-615.0
  1
100
 40
300.0
 72
     5
 11
-16541.25
 21
-615.0
  0
ENDBLK
  0
BLOCK
  2
*DIM_0065
 70
    65
 10
0.0
 20
0.0
  0
LINE
  8
Éíû@
 10
-19950.726
 20
-1251.951
 11
-19950.726
 21
-651.951
  0
LINE
  8
Éíû@
 10
-16950.726
 20
-651.951
 11
-19950.726
 21
-651.951
  0
POINT
  8
Éíû@
 10
-19950.726
 20
-651.951
  0
TEXT
  7
TextStyle03
  8
Éíû@
  6
CONTINUOUS
 10
-18696.25
 20
-615.0
  1
900
 40
300.0
 72
     5
 11
-18208.75
 21
-615.0
  0
ENDBLK
  0
BLOCK
  2
*GRP_0066
 70
    65
 10
0.0
 20
0.0
  0
POINT
  8
┌▓È15
 62
     0
 10
-20395.11225
 20
-4468.2285
  0
POLYLINE
  8
┌▓È15
  6
BYBLOCK
 62
     0
 66
     1
  0
VERTEX
  8
┌▓È15
 10
-20395.11225
 20
-4468.2285
  0
VERTEX
  8
┌▓È15
 10
-20942.93125
 20
-5016.04725
  0
VERTEX
  8
┌▓È15
 10
-21435.96825
 20
-5016.04725
  0
SEQEND
  0
ENDBLK
  0
BLOCK
  2
*GRP_0067
 70
    65
 10
0.0
 20
0.0
  0
POINT
  8
┌▓È15
 62
     0
 10
-17422.32375
 20
-8369.04575
  0
POLYLINE
  8
┌▓È15
  6
BYBLOCK
 62
     0
 66
     1
  0
VERTEX
  8
┌▓È15
 10
-17422.32375
 20
-8369.04575
  0
VERTEX
  8
┌▓È15
 10
-17970.14275
 20
-7821.227
  0
VERTEX
  8
┌▓È15
 10
-18463.17975
 20
-7821.227
  0
SEQEND
  0
ENDBLK
  0
BLOCK
  2
*DIM_0068
 70
    65
 10
0.0
 20
0.0
  0
LINE
  8
Éíû@
 10
-24079.22425
 20
-11369.04575
 11
-24679.22425
 21
-11369.04575
  0
LINE
  8
Éíû@
 10
-24079.22425
 20
-10369.04575
 11
-24679.22425
 21
-10369.04575
  0
LINE
  8
Éíû@
 10
-24679.22425
 20
-11369.04575
 11
-24679.22425
 21
-10369.04575
  0
POINT
  8
Éíû@
 10
-24679.22425
 20
-11369.04575
  0
POINT
  8
Éíû@
 10
-24679.22425
 20
-10369.04575
  0
TEXT
  7
TextStyle03
  8
Éíû@
  6
CONTINUOUS
 10
-24717.5
 20
-11113.75
  1
300
 40
300.0
 50
90.0
 72
     5
 11
-24717.5
 21
-10626.25
  0
ENDBLK
  0
BLOCK
  2
*GRP_0069
 70
    65
 10
0.0
 20
0.0
  0
POINT
  8
┌▓È15
 62
     0
 10
-9612.2315
 20
-11237.661
  0
POLYLINE
  8
┌▓È15
  6
BYBLOCK
 62
     0
 66
     1
  0
VERTEX
  8
┌▓È15
 10
-9612.2315
 20
-11237.661
  0
VERTEX
  8
┌▓È15
 10
-9246.09925
 20
-10856.58275
  0
VERTEX
  8
┌▓È15
 10
-9075.28
 20
-10856.58275
  0
SEQEND
  0
ENDBLK
  0
BLOCK
  2
*GRP_0070
 70
    65
 10
0.0
 20
0.0
  0
POINT
  8
┌▓È15
 62
     0
 10
5776.49175
 20
-4469.66575
  0
POLYLINE
  8
┌▓È15
  6
BYBLOCK
 62
     0
 66
     1
  0
VERTEX
  8
┌▓È15
 10
5776.49175
 20
-4469.66575
  0
VERTEX
  8
┌▓È15
 10
5228.67275
 20
-5017.4845
  0
VERTEX
  8
┌▓È15
 10
4735.63575
 20
-5017.4845
  0
SEQEND
  0
ENDBLK
  0
BLOCK
  2
*DIM_0071
 70
    65
 10
0.0
 20
0.0
  0
LINE
  8
Éíû@
 10
2580.6325
 20
-2173.234
 11
1980.6325
 21
-2173.234
  0
LINE
  8
Éíû@
 10
2580.6325
 20
-3139.90075
 11
1980.6325
 21
-3139.90075
  0
LINE
  8
Éíû@
 10
1980.6325
 20
-2173.234
 11
1980.6325
 21
-3139.90075
  0
POINT
  8
Éíû@
 10
1980.6325
 20
-2173.234
  0
POINT
  8
Éíû@
 10
1980.6325
 20
-3139.90075
  0
TEXT
  7
TextStyle03
  8
Éíû@
  6
CONTINUOUS
 10
1940.0
 20
-2901.25
  1
290
 40
300.0
 50
90.0
 72
     5
 11
1940.0
 21
-2413.75
  0
ENDBLK
  0
BLOCK
  2
*DIM_0072
 70
    65
 10
0.0
 20
0.0
  0
LINE
  8
Éíû@
 10
2580.6325
 20
-4806.56725
 11
1980.6325
 21
-4806.56725
  0
LINE
  8
Éíû@
 10
1980.6325
 20
-3139.90075
 11
1980.6325
 21
-4806.56725
  0
POINT
  8
Éíû@
 10
1980.6325
 20
-4806.56725
  0
TEXT
  7
TextStyle03
  8
Éíû@
  6
CONTINUOUS
 10
1940.0
 20
-4218.75
  1
500
 40
300.0
 50
90.0
 72
     5
 11
1940.0
 21
-3731.25
  0
ENDBLK
  0
BLOCK
  2
*DIM_0073
 70
    65
 10
0.0
 20
0.0
  0
LINE
  8
Éíû@
 10
4722.012
 20
-11755.0
 11
4722.012
 21
-12355.0
  0
LINE
  8
Éíû@
 10
4888.67875
 20
-11755.0
 11
4888.67875
 21
-12355.0
  0
LINE
  8
Éíû@
 10
4722.012
 20
-12355.0
 11
4888.67875
 21
-12355.0
  0
POINT
  8
Éíû@
 10
4888.67875
 20
-12355.0
  0
TEXT
  7
TextStyle03
  8
Éíû@
  6
CONTINUOUS
 10
4870.625
 20
-12320.0
  1
50
 40
300.0
 72
     5
 11
5189.375
 21
-12320.0
  0
ENDBLK
  0
BLOCK
  2
*GRP_0074
 70
    65
 10
0.0
 20
0.0
  0
LINE
  8
┌▓È4
 10
4303.89925
 20
-2359.90075
 11
4303.89925
 21
-2656.5675
  0
LINE
  8
┌▓È4
 10
4303.89925
 20
-2656.5675
 11
4007.2325
 21
-2656.5675
  0
LINE
  8
┌▓È4
 10
4007.2325
 20
-2656.5675
 11
4007.2325
 21
-2359.90075
  0
LINE
  8
┌▓È4
 10
4303.89925
 20
-2359.90075
 11
4007.2325
 21
-2359.90075
  0
LINE
  8
┌▓È4
 10
4007.2325
 20
-2359.90075
 11
4303.89925
 21
-2656.5675
  0
LINE
  8
┌▓È4
 10
4303.89925
 20
-2359.90075
 11
4007.2325
 21
-2656.5675
  0
ENDBLK
  0
BLOCK
  2
*GRP_0075
 70
    65
 10
0.0
 20
0.0
  0
LINE
  8
┌▓È4
 10
21949.42325
 20
-1654.043
 11
21949.42325
 21
-1950.70975
  0
LINE
  8
┌▓È4
 10
21949.42325
 20
-1950.70975
 11
21652.7565
 21
-1950.70975
  0
LINE
  8
┌▓È4
 10
21652.7565
 20
-1950.70975
 11
21652.7565
 21
-1654.043
  0
LINE
  8
┌▓È4
 10
21949.42325
 20
-1654.043
 11
21652.7565
 21
-1654.043
  0
LINE
  8
┌▓È4
 10
21652.7565
 20
-1654.043
 11
21949.42325
 21
-1950.70975
  0
LINE
  8
┌▓È4
 10
21949.42325
 20
-1654.043
 11
21652.7565
 21
-1950.70975
  0
ENDBLK
  0
BLOCK
  2
*GRP_0076
 70
    65
 10
0.0
 20
0.0
  0
LINE
  8
┌▓È4
 10
20982.75675
 20
-2976.5675
 11
20982.75675
 21
-3273.23425
  0
LINE
  8
┌▓È4
 10
20982.75675
 20
-3273.23425
 11
20686.09
 21
-3273.23425
  0
LINE
  8
┌▓È4
 10
20686.09
 20
-3273.23425
 11
20686.09
 21
-2976.5675
  0
LINE
  8
┌▓È4
 10
20982.75675
 20
-2976.5675
 11
20686.09
 21
-2976.5675
  0
LINE
  8
┌▓È4
 10
20686.09
 20
-2976.5675
 11
20982.75675
 21
-3273.23425
  0
LINE
  8
┌▓È4
 10
20982.75675
 20
-2976.5675
 11
20686.09
 21
-3273.23425
  0
ENDBLK
  0
BLOCK
  2
*GRP_0077
 70
    65
 10
0.0
 20
0.0
  0
LINE
  8
┌▓È4
 10
20982.75675
 20
-4293.23375
 11
20982.75675
 21
-4589.9005
  0
LINE
  8
┌▓È4
 10
20982.75675
 20
-4589.9005
 11
20686.09
 21
-4589.9005
  0
LINE
  8
┌▓È4
 10
20686.09
 20
-4589.9005
 11
20686.09
 21
-4293.23375
  0
LINE
  8
┌▓È4
 10
20982.75675
 20
-4293.23375
 11
20686.09
 21
-4293.23375
  0
LINE
  8
┌▓È4
 10
20686.09
 20
-4293.23375
 11
20982.75675
 21
-4589.9005
  0
LINE
  8
┌▓È4
 10
20982.75675
 20
-4293.23375
 11
20686.09
 21
-4589.9005
  0
ENDBLK
  0
BLOCK
  2
*GRP_0078
 70
    65
 10
0.0
 20
0.0
  0
LINE
  8
┌▓È4
 10
4303.89925
 20
-3111.9925
 11
4303.89925
 21
-3261.9925
  0
LINE
  8
┌▓È4
 10
4303.89925
 20
-3261.9925
 11
4007.2325
 21
-3261.9925
  0
LINE
  8
┌▓È4
 10
4007.2325
 20
-3261.9925
 11
4007.2325
 21
-3111.9925
  0
LINE
  8
┌▓È4
 10
4303.89925
 20
-3111.9925
 11
4007.2325
 21
-3111.9925
  0
LINE
  8
┌▓È4
 10
4303.89925
 20
-3111.9925
 11
4007.2325
 21
-3261.9925
  0
ENDBLK
  0
BLOCK
  2
*GRP_0079
 70
    65
 10
0.0
 20
0.0
  0
LINE
  8
┌▓È4
 10
4409.96525
 20
-3368.0585
 11
4303.89925
 21
-3261.9925
  0
LINE
  8
┌▓È4
 10
4303.89925
 20
-3261.9925
 11
4094.12425
 21
-3471.7675
  0
LINE
  8
┌▓È4
 10
4094.12425
 20
-3471.7675
 11
4200.19025
 21
-3577.8335
  0
LINE
  8
┌▓È4
 10
4409.96525
 20
-3368.0585
 11
4200.19025
 21
-3577.8335
  0
LINE
  8
┌▓È4
 10
4409.96525
 20
-3368.0585
 11
4094.12425
 21
-3471.7675
  0
ENDBLK
  0
BLOCK
  2
*GRP_0080
 70
    65
 10
0.0
 20
0.0
  0
LINE
  8
┌▓È4
 10
5335.1405
 20
-4293.23375
 11
5229.0745
 21
-4187.16775
  0
LINE
  8
┌▓È4
 10
5229.0745
 20
-4187.16775
 11
5019.2995
 21
-4396.94275
  0
LINE
  8
┌▓È4
 10
5019.2995
 20
-4396.94275
 11
5125.3655
 21
-4503.00875
  0
LINE
  8
┌▓È4
 10
5335.1405
 20
-4293.23375
 11
5125.3655
 21
-4503.00875
  0
LINE
  8
┌▓È4
 10
5335.1405
 20
-4293.23375
 11
5019.2995
 21
-4396.94275
  0
ENDBLK
  0
BLOCK
  2
*GRP_0081
 70
    65
 10
0.0
 20
0.0
  0
LINE
  8
┌▓È4
 10
9149.3695
 20
-4293.23375
 11
9149.3695
 21
-4589.9005
  0
LINE
  8
┌▓È4
 10
9149.3695
 20
-4589.9005
 11
8852.70275
 21
-4589.9005
  0
LINE
  8
┌▓È4
 10
8852.70275
 20
-4589.9005
 11
8852.70275
 21
-4293.23375
  0
LINE
  8
┌▓È4
 10
9149.3695
 20
-4293.23375
 11
8852.70275
 21
-4293.23375
  0
LINE
  8
┌▓È4
 10
8852.70275
 20
-4293.23375
 11
9149.3695
 21
-4589.9005
  0
LINE
  8
┌▓È4
 10
9149.3695
 20
-4293.23375
 11
8852.70275
 21
-4589.9005
  0
ENDBLK
  0
BLOCK
  2
*GRP_0082
 70
    65
 10
0.0
 20
0.0
  0
LINE
  8
┌▓È4
 10
5812.7565
 20
-4589.9005
 11
5517.3925
 21
-4589.9005
  0
LINE
  8
┌▓È4
 10
5517.3925
 20
-4589.9005
 11
5517.3925
 21
-4293.23375
  0
LINE
  8
┌▓È4
 10
5812.7565
 20
-4293.23375
 11
5517.3925
 21
-4293.23375
  0
LINE
  8
┌▓È4
 10
5517.3925
 20
-4293.23375
 11
5812.7565
 21
-4588.59775
  0
LINE
  8
┌▓È4
 10
5812.7565
 20
-4294.5365
 11
5517.3925
 21
-4589.9005
  0
ENDBLK
  0
BLOCK
  2
*GRP_0083
 70
    65
 10
0.0
 20
0.0
  0
LINE
  8
┌▓È4
 10
10666.4595
 20
-4293.23375
 11
10516.4595
 21
-4293.23375
  0
LINE
  8
┌▓È4
 10
10516.4595
 20
-4293.23375
 11
10516.4595
 21
-4589.9005
  0
LINE
  8
┌▓È4
 10
10516.4595
 20
-4589.9005
 11
10666.4595
 21
-4589.9005
  0
LINE
  8
┌▓È4
 10
10666.4595
 20
-4293.23375
 11
10666.4595
 21
-4589.9005
  0
LINE
  8
┌▓È4
 10
10666.4595
 20
-4293.23375
 11
10516.4595
 21
-4589.9005
  0
ENDBLK
  0
BLOCK
  2
*GRP_0084
 70
    65
 10
0.0
 20
0.0
  0
LINE
  8
┌▓È4
 10
12108.5495
 20
-4293.23375
 11
11958.5495
 21
-4293.23375
  0
LINE
  8
┌▓È4
 10
11958.5495
 20
-4293.23375
 11
11958.5495
 21
-4589.9005
  0
LINE
  8
┌▓È4
 10
11958.5495
 20
-4589.9005
 11
12108.5495
 21
-4589.9005
  0
LINE
  8
┌▓È4
 10
12108.5495
 20
-4293.23375
 11
12108.5495
 21
-4589.9005
  0
LINE
  8
┌▓È4
 10
12108.5495
 20
-4293.23375
 11
11958.5495
 21
-4589.9005
  0
ENDBLK
  0
BLOCK
  2
*GRP_0085
 70
    65
 10
0.0
 20
0.0
  0
LINE
  8
┌▓È4
 10
13550.63975
 20
-4293.23375
 11
13400.63975
 21
-4293.23375
  0
LINE
  8
┌▓È4
 10
13400.63975
 20
-4293.23375
 11
13400.63975
 21
-4589.9005
  0
LINE
  8
┌▓È4
 10
13400.63975
 20
-4589.9005
 11
13550.63975
 21
-4589.9005
  0
LINE
  8
┌▓È4
 10
13550.63975
 20
-4293.23375
 11
13550.63975
 21
-4589.9005
  0
LINE
  8
┌▓È4
 10
13550.63975
 20
-4293.23375
 11
13400.63975
 21
-4589.9005
  0
ENDBLK
  0
BLOCK
  2
*GRP_0086
 70
    65
 10
0.0
 20
0.0
  0
LINE
  8
┌▓È4
 10
14992.72975
 20
-4293.23375
 11
14842.72975
 21
-4293.23375
  0
LINE
  8
┌▓È4
 10
14842.72975
 20
-4293.23375
 11
14842.72975
 21
-4589.9005
  0
LINE
  8
┌▓È4
 10
14842.72975
 20
-4589.9005
 11
14992.72975
 21
-4589.9005
  0
LINE
  8
┌▓È4
 10
14992.72975
 20
-4293.23375
 11
14992.72975
 21
-4589.9005
  0
LINE
  8
┌▓È4
 10
14992.72975
 20
-4293.23375
 11
14842.72975
 21
-4589.9005
  0
ENDBLK
  0
BLOCK
  2
*GRP_0087
 70
    65
 10
0.0
 20
0.0
  0
LINE
  8
┌▓È4
 10
16434.81975
 20
-4293.23375
 11
16284.81975
 21
-4293.23375
  0
LINE
  8
┌▓È4
 10
16284.81975
 20
-4293.23375
 11
16284.81975
 21
-4589.9005
  0
LINE
  8
┌▓È4
 10
16284.81975
 20
-4589.9005
 11
16434.81975
 21
-4589.9005
  0
LINE
  8
┌▓È4
 10
16434.81975
 20
-4293.23375
 11
16434.81975
 21
-4589.9005
  0
LINE
  8
┌▓È4
 10
16434.81975
 20
-4293.23375
 11
16284.81975
 21
-4589.9005
  0
ENDBLK
  0
BLOCK
  2
*GRP_0088
 70
    65
 10
0.0
 20
0.0
  0
LINE
  8
┌▓È4
 10
17876.90975
 20
-4293.23375
 11
17726.90975
 21
-4293.23375
  0
LINE
  8
┌▓È4
 10
17726.90975
 20
-4293.23375
 11
17726.90975
 21
-4589.9005
  0
LINE
  8
┌▓È4
 10
17726.90975
 20
-4589.9005
 11
17876.90975
 21
-4589.9005
  0
LINE
  8
┌▓È4
 10
17876.90975
 20
-4293.23375
 11
17876.90975
 21
-4589.9005
  0
LINE
  8
┌▓È4
 10
17876.90975
 20
-4293.23375
 11
17726.90975
 21
-4589.9005
  0
ENDBLK
  0
BLOCK
  2
*GRP_0089
 70
    65
 10
0.0
 20
0.0
  0
LINE
  8
┌▓È4
 10
19319.0
 20
-4293.23375
 11
19169.0
 21
-4293.23375
  0
LINE
  8
┌▓È4
 10
19169.0
 20
-4293.23375
 11
19169.0
 21
-4589.9005
  0
LINE
  8
┌▓È4
 10
19169.0
 20
-4589.9005
 11
19319.0
 21
-4589.9005
  0
LINE
  8
┌▓È4
 10
19319.0
 20
-4293.23375
 11
19319.0
 21
-4589.9005
  0
LINE
  8
┌▓È4
 10
19319.0
 20
-4293.23375
 11
19169.0
 21
-4589.9005
  0
ENDBLK
  0
BLOCK
  2
*GRP_0090
 70
    65
 10
0.0
 20
0.0
  0
LINE
  8
┌▓È4
 10
9146.08975
 20
-3206.5675
 11
9146.08975
 21
-3503.23425
  0
LINE
  8
┌▓È4
 10
9146.08975
 20
-3503.23425
 11
8852.7565
 21
-3503.23425
  0
LINE
  8
┌▓È4
 10
8852.7565
 20
-3503.23425
 11
8852.7565
 21
-3206.5675
  0
LINE
  8
┌▓È4
 10
9146.08975
 20
-3206.5675
 11
8852.7565
 21
-3206.5675
  0
LINE
  8
┌▓È4
 10
8852.7565
 20
-3206.5675
 11
9146.08975
 21
-3503.23425
  0
LINE
  8
┌▓È4
 10
9146.08975
 20
-3206.5675
 11
8852.7565
 21
-3503.23425
  0
ENDBLK
  0
BLOCK
  2
*GRP_0091
 70
    65
 10
0.0
 20
0.0
  0
LINE
  8
┌▓È4
 10
5812.7565
 20
-3206.5675
 11
5812.7565
 21
-3503.23425
  0
LINE
  8
┌▓È4
 10
5812.7565
 20
-3503.23425
 11
5519.42325
 21
-3503.23425
  0
LINE
  8
┌▓È4
 10
5519.42325
 20
-3503.23425
 11
5519.42325
 21
-3206.5675
  0
LINE
  8
┌▓È4
 10
5812.7565
 20
-3206.5675
 11
5519.42325
 21
-3206.5675
  0
LINE
  8
┌▓È4
 10
5519.42325
 20
-3206.5675
 11
5812.7565
 21
-3503.23425
  0
LINE
  8
┌▓È4
 10
5812.7565
 20
-3206.5675
 11
5519.42325
 21
-3503.23425
  0
ENDBLK
  0
BLOCK
  2
*GRP_0092
 70
    65
 10
0.0
 20
0.0
  0
LINE
  8
┌▓È4
 10
8852.7565
 20
-3206.5675
 11
8852.7565
 21
-3306.5675
  0
LINE
  8
┌▓È4
 10
8852.7565
 20
-3306.5675
 11
8752.7565
 21
-3306.5675
  0
LINE
  8
┌▓È4
 10
8752.7565
 20
-3306.5675
 11
8752.7565
 21
-3206.5675
  0
LINE
  8
┌▓È4
 10
8852.7565
 20
-3206.5675
 11
8752.7565
 21
-3206.5675
  0
LINE
  8
┌▓È4
 10
8852.7565
 20
-3206.5675
 11
8752.7565
 21
-3306.5675
  0
ENDBLK
  0
BLOCK
  2
*GRP_0093
 70
    65
 10
0.0
 20
0.0
  0
LINE
  8
┌▓È4
 10
7406.52975
 20
-3206.5675
 11
7406.52975
 21
-3306.5675
  0
LINE
  8
┌▓È4
 10
7406.52975
 20
-3306.5675
 11
7306.52975
 21
-3306.5675
  0
LINE
  8
┌▓È4
 10
7306.52975
 20
-3306.5675
 11
7306.52975
 21
-3206.5675
  0
LINE
  8
┌▓È4
 10
7406.52975
 20
-3206.5675
 11
7306.52975
 21
-3206.5675
  0
LINE
  8
┌▓È4
 10
7406.52975
 20
-3206.5675
 11
7306.52975
 21
-3306.5675
  0
ENDBLK
  0
BLOCK
  2
*GRP_0094
 70
    65
 10
0.0
 20
0.0
  0
LINE
  8
┌▓È4
 10
5912.7565
 20
-3206.5675
 11
5912.7565
 21
-3306.5675
  0
LINE
  8
┌▓È4
 10
5912.7565
 20
-3306.5675
 11
5812.7565
 21
-3306.5675
  0
LINE
  8
┌▓È4
 10
5812.7565
 20
-3306.5675
 11
5812.7565
 21
-3206.5675
  0
LINE
  8
┌▓È4
 10
5912.7565
 20
-3206.5675
 11
5812.7565
 21
-3206.5675
  0
LINE
  8
┌▓È4
 10
5912.7565
 20
-3206.5675
 11
5812.7565
 21
-3306.5675
  0
ENDBLK
  0
BLOCK
  2
*GRP_0095
 70
    65
 10
0.0
 20
0.0
  0
LINE
  8
┌▓È4
 10
15812.75675
 20
-3206.5675
 11
15812.75675
 21
-3503.23425
  0
LINE
  8
┌▓È4
 10
15812.75675
 20
-3503.23425
 11
15519.4235
 21
-3503.23425
  0
LINE
  8
┌▓È4
 10
15519.4235
 20
-3503.23425
 11
15519.4235
 21
-3206.5675
  0
LINE
  8
┌▓È4
 10
15812.75675
 20
-3206.5675
 11
15519.4235
 21
-3206.5675
  0
LINE
  8
┌▓È4
 10
15519.4235
 20
-3206.5675
 11
15812.75675
 21
-3503.23425
  0
LINE
  8
┌▓È4
 10
15812.75675
 20
-3206.5675
 11
15519.4235
 21
-3503.23425
  0
ENDBLK
  0
BLOCK
  2
*GRP_0096
 70
    65
 10
0.0
 20
0.0
  0
POINT
  8
┌▓È15
 62
     0
 10
9136.09275
 20
11506.9035
  0
POLYLINE
  8
┌▓È15
  6
BYBLOCK
 62
     0
 66
     1
  0
VERTEX
  8
┌▓È15
 10
9136.09275
 20
11506.9035
  0
VERTEX
  8
┌▓È15
 10
10380.1455
 20
12882.949
  0
VERTEX
  8
┌▓È15
 10
10687.74175
 20
12882.949
  0
SEQEND
  0
ENDBLK
  0
BLOCK
  2
*DIM_0097
 70
    65
 10
0.0
 20
0.0
  0
LINE
  8
Éíû@
 10
5338.11225
 20
11506.9035
 11
4738.11225
 21
11506.9035
  0
LINE
  8
Éíû@
 10
5338.11225
 20
8506.9035
 11
4738.11225
 21
8506.9035
  0
LINE
  8
Éíû@
 10
4738.11225
 20
11506.9035
 11
4738.11225
 21
8506.9035
  0
POINT
  8
Éíû@
 10
4738.11225
 20
11506.9035
  0
POINT
  8
Éíû@
 10
4738.11225
 20
8506.9035
  0
TEXT
  7
TextStyle03
  8
Éíû@
  6
CONTINUOUS
 10
4700.0
 20
9761.25
  1
900
 40
300.0
 50
90.0
 72
     5
 11
4700.0
 21
10248.75
  0
ENDBLK
  0
BLOCK
  2
*DIM_0098
 70
    65
 10
0.0
 20
0.0
  0
LINE
  8
Éíû@
 10
6507.03375
 20
5269.2825
 11
6507.03375
 21
4669.2825
  0
LINE
  8
Éíû@
 10
12507.03375
 20
5269.2825
 11
12507.03375
 21
4669.2825
  0
LINE
  8
Éíû@
 10
6507.03375
 20
4669.2825
 11
12507.03375
 21
4669.2825
  0
POINT
  8
Éíû@
 10
6507.03375
 20
4669.2825
  0
POINT
  8
Éíû@
 10
12507.03375
 20
4669.2825
  0
TEXT
  7
TextStyle03
  8
Éíû@
  6
CONTINUOUS
 10
9092.5
 20
4705.0
  1
1,800
 40
300.0
 72
     5
 11
9917.5
 21
4705.0
  0
ENDBLK
  0
BLOCK
  2
*DIM_0099
 70
    65
 10
0.0
 20
0.0
  0
LINE
  8
Éíû@
 10
23670.50425
 20
5269.2825
 11
23670.50425
 21
4669.2825
  0
LINE
  8
Éíû@
 10
22670.50425
 20
5269.2825
 11
22670.50425
 21
4669.2825
  0
LINE
  8
Éíû@
 10
23670.50425
 20
4669.2825
 11
22670.50425
 21
4669.2825
  0
POINT
  8
Éíû@
 10
23670.50425
 20
4669.2825
  0
POINT
  8
Éíû@
 10
22670.50425
 20
4669.2825
  0
TEXT
  7
TextStyle03
  8
Éíû@
  6
CONTINUOUS
 10
22923.75
 20
4705.0
  1
300
 40
300.0
 72
     5
 11
23411.25
 21
4705.0
  0
ENDBLK
  0
BLOCK
  2
*DIM_0100
 70
    65
 10
0.0
 20
0.0
  0
LINE
  8
Éíû@
 10
24191.664
 20
11506.9035
 11
24791.664
 21
11506.9035
  0
LINE
  8
Éíû@
 10
24191.664
 20
8506.9035
 11
24791.664
 21
8506.9035
  0
LINE
  8
Éíû@
 10
24791.664
 20
11506.9035
 11
24791.664
 21
8506.9035
  0
POINT
  8
Éíû@
 10
24791.664
 20
11506.9035
  0
POINT
  8
Éíû@
 10
24791.664
 20
8506.9035
  0
TEXT
  7
TextStyle03
  8
Éíû@
  6
CONTINUOUS
 10
24750.0
 20
9761.25
  1
900
 40
300.0
 50
90.0
 72
     5
 11
24750.0
 21
10248.75
  0
ENDBLK
  0
BLOCK
  2
*DIM_0101
 70
    65
 10
0.0
 20
0.0
  0
LINE
  8
Éíû@
 10
5938.11225
 20
8506.9035
 11
5338.11225
 21
8506.9035
  0
LINE
  8
Éíû@
 10
5938.11225
 20
8590.23675
 11
5338.11225
 21
8590.23675
  0
LINE
  8
Éíû@
 10
5338.11225
 20
8506.9035
 11
5338.11225
 21
8590.23675
  0
POINT
  8
Éíû@
 10
5338.11225
 20
8506.9035
  0
POINT
  8
Éíû@
 10
5338.11225
 20
8590.23675
  0
TEXT
  7
TextStyle03
  8
Éíû@
  6
CONTINUOUS
 10
5300.0
 20
8050.625
  1
25
 40
300.0
 50
90.0
 72
     5
 11
5300.0
 21
8369.375
  0
ENDBLK
  0
BLOCK
  2
*DIM_0102
 70
    65
 10
0.0
 20
0.0
  0
LINE
  8
Éíû@
 10
5938.11225
 20
9971.9035
 11
5338.11225
 21
9971.9035
  0
LINE
  8
Éíû@
 10
5338.11225
 20
8590.23675
 11
5338.11225
 21
9971.9035
  0
POINT
  8
Éíû@
 10
5338.11225
 20
9971.9035
  0
TEXT
  7
TextStyle03
  8
Éíû@
  6
CONTINUOUS
 10
5300.0
 20
9036.25
  1
415
 40
300.0
 50
90.0
 72
     5
 11
5300.0
 21
9523.75
  0
ENDBLK
  0
BLOCK
  2
*DIM_0103
 70
    65
 10
0.0
 20
0.0
  0
LINE
  8
Éíû@
 10
5938.11225
 20
10041.9035
 11
5338.11225
 21
10041.9035
  0
LINE
  8
Éíû@
 10
5338.11225
 20
9971.9035
 11
5338.11225
 21
10041.9035
  0
POINT
  8
Éíû@
 10
5338.11225
 20
10041.9035
  0
TEXT
  7
TextStyle03
  8
Éíû@
  6
CONTINUOUS
 10
5300.0
 20
9845.625
  1
21
 40
300.0
 50
90.0
 72
     5
 11
5300.0
 21
10164.375
  0
ENDBLK
  0
BLOCK
  2
*DIM_0104
 70
    65
 10
0.0
 20
0.0
  0
LINE
  8
Éíû@
 10
5938.11225
 20
11423.57
 11
5338.11225
 21
11423.57
  0
LINE
  8
Éíû@
 10
5338.11225
 20
10041.9035
 11
5338.11225
 21
11423.57
  0
POINT
  8
Éíû@
 10
5338.11225
 20
11423.57
  0
TEXT
  7
TextStyle03
  8
Éíû@
  6
CONTINUOUS
 10
5300.0
 20
10488.75
  1
415
 40
300.0
 50
90.0
 72
     5
 11
5300.0
 21
10976.25
  0
ENDBLK
  0
BLOCK
  2
*DIM_0105
 70
    65
 10
0.0
 20
0.0
  0
LINE
  8
Éíû@
 10
5938.11225
 20
11506.9035
 11
5338.11225
 21
11506.9035
  0
LINE
  8
Éíû@
 10
5338.11225
 20
11423.57
 11
5338.11225
 21
11506.9035
  0
POINT
  8
Éíû@
 10
5338.11225
 20
11506.9035
  0
TEXT
  7
TextStyle03
  8
Éíû@
  6
CONTINUOUS
 10
5300.0
 20
11643.125
  1
25
 40
300.0
 50
90.0
 72
     5
 11
5300.0
 21
11961.875
  0
ENDBLK
  0
BLOCK
  2
*DIM_0106
 70
    65
 10
0.0
 20
0.0
  0
LINE
  8
Éíû@
 10
19087.67175
 20
5269.2825
 11
19087.67175
 21
4669.2825
  0
LINE
  8
Éíû@
 10
18087.67175
 20
5269.2825
 11
18087.67175
 21
4669.2825
  0
LINE
  8
Éíû@
 10
19087.67175
 20
4669.2825
 11
18087.67175
 21
4669.2825
  0
POINT
  8
Éíû@
 10
19087.67175
 20
4669.2825
  0
POINT
  8
Éíû@
 10
18087.67175
 20
4669.2825
  0
TEXT
  7
TextStyle03
  8
Éíû@
  6
CONTINUOUS
 10
18343.75
 20
4705.0
  1
300
 40
300.0
 72
     5
 11
18831.25
 21
4705.0
  0
ENDBLK
  0
BLOCK
  2
*DIM_0107
 70
    65
 10
0.0
 20
0.0
  0
LINE
  8
Éíû@
 10
19608.8315
 20
11506.9035
 11
20208.8315
 21
11506.9035
  0
LINE
  8
Éíû@
 10
19608.8315
 20
8506.9035
 11
20208.8315
 21
8506.9035
  0
LINE
  8
Éíû@
 10
20208.8315
 20
11506.9035
 11
20208.8315
 21
8506.9035
  0
POINT
  8
Éíû@
 10
20208.8315
 20
11506.9035
  0
POINT
  8
Éíû@
 10
20208.8315
 20
8506.9035
  0
TEXT
  7
TextStyle03
  8
Éíû@
  6
CONTINUOUS
 10
20170.0
 20
9761.25
  1
900
 40
300.0
 50
90.0
 72
     5
 11
20170.0
 21
10248.75
  0
ENDBLK
  0
BLOCK
  2
*DIM_0108
 70
    65
 10
0.0
 20
0.0
  0
LINE
  8
Éíû@
 10
13137.64925
 20
11506.9035
 11
13737.64925
 21
11506.9035
  0
LINE
  8
Éíû@
 10
13137.64925
 20
11423.57
 11
13737.64925
 21
11423.57
  0
LINE
  8
Éíû@
 10
13737.64925
 20
11506.9035
 11
13737.64925
 21
11423.57
  0
POINT
  8
Éíû@
 10
13737.64925
 20
11506.9035
  0
POINT
  8
Éíû@
 10
13737.64925
 20
11423.57
  0
TEXT
  7
TextStyle03
  8
Éíû@
  6
CONTINUOUS
 10
13700.0
 20
11643.125
  1
25
 40
300.0
 50
90.0
 72
     5
 11
13700.0
 21
11961.875
  0
ENDBLK
  0
BLOCK
  2
*DIM_0109
 70
    65
 10
0.0
 20
0.0
  0
LINE
  8
Éíû@
 10
13137.64925
 20
10525.79225
 11
13737.64925
 21
10525.79225
  0
LINE
  8
Éíû@
 10
13737.64925
 20
11423.57
 11
13737.64925
 21
10525.79225
  0
POINT
  8
Éíû@
 10
13737.64925
 20
10525.79225
  0
TEXT
  7
TextStyle03
  8
Éíû@
  6
CONTINUOUS
 10
13700.0
 20
10728.75
  1
269
 40
300.0
 50
90.0
 72
     5
 11
13700.0
 21
11216.25
  0
ENDBLK
  0
BLOCK
  2
*DIM_0110
 70
    65
 10
0.0
 20
0.0
  0
LINE
  8
Éíû@
 10
13137.64925
 20
10455.79225
 11
13737.64925
 21
10455.79225
  0
LINE
  8
Éíû@
 10
13737.64925
 20
10525.79225
 11
13737.64925
 21
10455.79225
  0
POINT
  8
Éíû@
 10
13737.64925
 20
10455.79225
  0
TEXT
  7
TextStyle03
  8
Éíû@
  6
CONTINUOUS
 10
14090.0
 20
10330.625
  1
21
 40
300.0
 50
90.0
 72
     5
 11
14090.0
 21
10649.375
  0
ENDBLK
  0
BLOCK
  2
*DIM_0111
 70
    65
 10
0.0
 20
0.0
  0
LINE
  8
Éíû@
 10
13137.64925
 20
9558.0145
 11
13737.64925
 21
9558.0145
  0
LINE
  8
Éíû@
 10
13737.64925
 20
10455.79225
 11
13737.64925
 21
9558.0145
  0
POINT
  8
Éíû@
 10
13737.64925
 20
9558.0145
  0
TEXT
  7
TextStyle03
  8
Éíû@
  6
CONTINUOUS
 10
13700.0
 20
9761.25
  1
269
 40
300.0
 50
90.0
 72
     5
 11
13700.0
 21
10248.75
  0
ENDBLK
  0
BLOCK
  2
*DIM_0112
 70
    65
 10
0.0
 20
0.0
  0
LINE
  8
Éíû@
 10
13137.64925
 20
9488.0145
 11
13737.64925
 21
9488.0145
  0
LINE
  8
Éíû@
 10
13737.64925
 20
9558.0145
 11
13737.64925
 21
9488.0145
  0
POINT
  8
Éíû@
 10
13737.64925
 20
9488.0145
  0
TEXT
  7
TextStyle03
  8
Éíû@
  6
CONTINUOUS
 10
14090.0
 20
9363.125
  1
21
 40
300.0
 50
90.0
 72
     5
 11
14090.0
 21
9681.875
  0
ENDBLK
  0
BLOCK
  2
*DIM_0113
 70
    65
 10
0.0
 20
0.0
  0
LINE
  8
Éíû@
 10
13137.64925
 20
8590.23675
 11
13737.64925
 21
8590.23675
  0
LINE
  8
Éíû@
 10
13737.64925
 20
9488.0145
 11
13737.64925
 21
8590.23675
  0
POINT
  8
Éíû@
 10
13737.64925
 20
8590.23675
  0
TEXT
  7
TextStyle03
  8
Éíû@
  6
CONTINUOUS
 10
13700.0
 20
8793.75
  1
269
 40
300.0
 50
90.0
 72
     5
 11
13700.0
 21
9281.25
  0
ENDBLK
  0
BLOCK
  2
*DIM_0114
 70
    65
 10
0.0
 20
0.0
  0
LINE
  8
Éíû@
 10
13137.64925
 20
8590.23675
 11
13737.64925
 21
8590.23675
  0
LINE
  8
Éíû@
 10
13137.64925
 20
8506.9035
 11
13737.64925
 21
8506.9035
  0
LINE
  8
Éíû@
 10
13737.64925
 20
8590.23675
 11
13737.64925
 21
8506.9035
  0
POINT
  8
Éíû@
 10
13737.64925
 20
8590.23675
  0
POINT
  8
Éíû@
 10
13737.64925
 20
8506.9035
  0
TEXT
  7
TextStyle03
  8
Éíû@
  6
CONTINUOUS
 10
13700.0
 20
8050.625
  1
25
 40
300.0
 50
90.0
 72
     5
 11
13700.0
 21
8369.375
  0
ENDBLK
  0
BLOCK
  2
*GRP_0115
 70
    65
 10
0.0
 20
0.0
  0
POINT
  8
┌▓È15
 62
     0
 10
23670.50425
 20
10816.8615
  0
POLYLINE
  8
┌▓È15
  6
BYBLOCK
 62
     0
 66
     1
  0
VERTEX
  8
┌▓È15
 10
23670.0155
 20
10816.76175
  0
VERTEX
  8
┌▓È15
 10
22742.9555
 20
11800.21075
  0
VERTEX
  8
┌▓È15
 10
22525.712
 20
11800.21075
  0
SEQEND
  0
ENDBLK
  0
BLOCK
  2
*DIM_0116
 70
    65
 10
0.0
 20
0.0
  0
LINE
  8
Éíû@
 10
6507.03375
 20
5869.2825
 11
6507.03375
 21
5269.2825
  0
LINE
  8
Éíû@
 10
6590.367
 20
5869.2825
 11
6590.367
 21
5269.2825
  0
LINE
  8
Éíû@
 10
6507.03375
 20
5269.2825
 11
6590.367
 21
5269.2825
  0
POINT
  8
Éíû@
 10
6507.03375
 20
5269.2825
  0
POINT
  8
Éíû@
 10
6590.367
 20
5269.2825
  0
TEXT
  7
TextStyle03
  8
Éíû@
  6
CONTINUOUS
 10
6050.625
 20
5305.0
  1
25
 40
300.0
 72
     5
 11
6369.375
 21
5305.0
  0
ENDBLK
  0
BLOCK
  2
*DIM_0117
 70
    65
 10
0.0
 20
0.0
  0
LINE
  8
Éíû@
 10
7590.36725
 20
5869.2825
 11
7590.36725
 21
5269.2825
  0
LINE
  8
Éíû@
 10
6590.367
 20
5269.2825
 11
7590.36725
 21
5269.2825
  0
POINT
  8
Éíû@
 10
7590.36725
 20
5269.2825
  0
TEXT
  7
TextStyle03
  8
Éíû@
  6
CONTINUOUS
 10
6846.25
 20
5305.0
  1
300
 40
300.0
 72
     5
 11
7333.75
 21
5305.0
  0
ENDBLK
  0
BLOCK
  2
*DIM_0118
 70
    65
 10
0.0
 20
0.0
  0
LINE
  8
Éíû@
 10
7673.7005
 20
5869.2825
 11
7673.7005
 21
5269.2825
  0
LINE
  8
Éíû@
 10
7590.36725
 20
5269.2825
 11
7673.7005
 21
5269.2825
  0
POINT
  8
Éíû@
 10
7673.7005
 20
5269.2825
  0
TEXT
  7
TextStyle03
  8
Éíû@
  6
CONTINUOUS
 10
7470.625
 20
4915.0
  1
25
 40
300.0
 72
     5
 11
7789.375
 21
4915.0
  0
ENDBLK
  0
BLOCK
  2
*DIM_0119
 70
    65
 10
0.0
 20
0.0
  0
LINE
  8
Éíû@
 10
11340.367
 20
5869.2825
 11
11340.367
 21
5269.2825
  0
LINE
  8
Éíû@
 10
7673.7005
 20
5269.2825
 11
11340.367
 21
5269.2825
  0
POINT
  8
Éíû@
 10
11340.367
 20
5269.2825
  0
TEXT
  7
TextStyle03
  8
Éíû@
  6
CONTINUOUS
 10
9092.5
 20
5305.0
  1
1,100
 40
300.0
 72
     5
 11
9917.5
 21
5305.0
  0
ENDBLK
  0
BLOCK
  2
*DIM_0120
 70
    65
 10
0.0
 20
0.0
  0
LINE
  8
Éíû@
 10
11423.70025
 20
5869.2825
 11
11423.70025
 21
5269.2825
  0
LINE
  8
Éíû@
 10
11340.367
 20
5269.2825
 11
11423.70025
 21
5269.2825
  0
POINT
  8
Éíû@
 10
11423.70025
 20
5269.2825
  0
TEXT
  7
TextStyle03
  8
Éíû@
  6
CONTINUOUS
 10
11220.625
 20
4915.0
  1
25
 40
300.0
 72
     5
 11
11539.375
 21
4915.0
  0
ENDBLK
  0
BLOCK
  2
*DIM_0121
 70
    65
 10
0.0
 20
0.0
  0
LINE
  8
Éíû@
 10
12423.7005
 20
5869.2825
 11
12423.7005
 21
5269.2825
  0
LINE
  8
Éíû@
 10
11423.70025
 20
5269.2825
 11
12423.7005
 21
5269.2825
  0
POINT
  8
Éíû@
 10
12423.7005
 20
5269.2825
  0
TEXT
  7
TextStyle03
  8
Éíû@
  6
CONTINUOUS
 10
11678.75
 20
5305.0
  1
300
 40
300.0
 72
     5
 11
12166.25
 21
5305.0
  0
ENDBLK
  0
BLOCK
  2
*DIM_0122
 70
    65
 10
0.0
 20
0.0
  0
LINE
  8
Éíû@
 10
12507.03375
 20
5869.2825
 11
12507.03375
 21
5269.2825
  0
LINE
  8
Éíû@
 10
12423.7005
 20
5269.2825
 11
12507.03375
 21
5269.2825
  0
POINT
  8
Éíû@
 10
12507.03375
 20
5269.2825
  0
TEXT
  7
TextStyle03
  8
Éíû@
  6
CONTINUOUS
 10
12643.125
 20
5305.0
  1
25
 40
300.0
 72
     5
 11
12961.875
 21
5305.0
  0
ENDBLK
  0
ENDSEC
  0
SECTION
  2
ENTITIES
  0
POLYLINE
  8
┌▓È1
  6
CONTINUOUS
 66
     1
 70
     1
  0
VERTEX
  8
┌▓È1
 10
-29700.0
 20
-21000.0
  0
VERTEX
  8
┌▓È1
 10
29700.0
 20
-21000.0
  0
VERTEX
  8
┌▓È1
 10
29700.0
 20
21000.0
  0
VERTEX
  8
┌▓È1
 10
-29700.0
 20
21000.0
  0
SEQEND
  0
LINE
  8
┌▓È1
 10
12029.03125
 20
-11369.04575
 11
15561.17425
 21
-11369.04575
  0
LINE
  8
┌▓È1
 10
2197.75
 20
-11369.04575
 11
5729.893
 21
-11369.04575
  0
LINE
  8
┌▓È1
 10
-5741.52325
 20
10506.9035
 11
-5741.52325
 21
12762.04375
  0
LINE
  8
┌▓È1
 10
-6041.52325
 20
10506.9035
 11
-6041.52325
 21
12762.04375
  0
LINE
  8
┌▓È1
 10
23670.50425
 20
12487.53575
 11
23670.50425
 21
5840.23675
  0
LINE
  8
┌▓È1
 10
23670.50425
 20
5840.23675
 11
21670.50425
 21
5840.23675
  0
LINE
  8
┌▓È1
 10
19087.67175
 20
12487.53575
 11
19087.67175
 21
5840.23675
  0
LINE
  8
┌▓È1
 10
19087.67175
 20
5840.23675
 11
17087.67175
 21
5840.23675
  0
LINE
  8
┌▓È2
 10
-16186.54525
 20
16563.95275
 11
-16186.54525
 21
15897.286
  0
LINE
  8
┌▓È2
 10
-17853.212
 20
15897.286
 11
-16186.54525
 21
15897.286
  0
LINE
  8
┌▓È2
 10
-17853.212
 20
16563.95275
 11
-16186.54525
 21
16563.95275
  0
LINE
  8
┌▓È2
 10
-17853.212
 20
16563.95275
 11
-17853.212
 21
15897.286
  0
LINE
  8
┌▓È2
 10
-16186.54525
 20
13961.47675
 11
-16186.54525
 21
13294.81
  0
LINE
  8
┌▓È2
 10
-17853.212
 20
13294.81
 11
-16186.54525
 21
13294.81
  0
LINE
  8
┌▓È2
 10
-17853.212
 20
13961.47675
 11
-16186.54525
 21
13961.47675
  0
LINE
  8
┌▓È2
 10
-17853.212
 20
13961.47675
 11
-17853.212
 21
13294.81
  0
LINE
  8
┌▓È2
 10
-5783.19
 20
10506.9035
 11
-5783.19
 21
12762.04375
  0
LINE
  8
┌▓È2
 10
-5999.8565
 20
10506.9035
 11
-5999.8565
 21
12762.04375
  0
LINE
  8
┌▓È3
 10
-12253.76375
 20
15056.9035
 11
-5217.623
 21
15056.9035
  0
LINE
  8
┌▓È3
 10
-12253.76375
 20
14840.23675
 11
-5127.87625
 21
14840.23675
  0
LINE
  8
┌▓È3
  6
CONTINUOUS
 10
-5009.4455
 20
14958.6675
 11
-5127.87625
 21
14840.23675
  0
LINE
  8
┌▓È3
 10
-14420.4305
 20
14840.23675
 11
-15920.4305
 21
14840.23675
  0
LINE
  8
┌▓È3
 10
-14420.4305
 20
15056.9035
 11
-15920.4305
 21
15056.9035
  0
LINE
  8
┌▓È3
 10
-20670.278
 20
12323.57
 11
-19268.61125
 21
14840.23675
  0
LINE
  8
┌▓È3
 10
-19087.09725
 20
14840.23675
 11
-19268.61125
 21
14840.23675
  0
LINE
  8
┌▓È3
 10
-19087.09725
 20
15056.9035
 11
-19395.94375
 21
15056.9035
  0
LINE
  8
┌▓È3
 10
-20797.6105
 20
12540.23675
 11
-19395.94375
 21
15056.9035
  0
LINE
  8
┌▓È4
 10
-22616.301
 20
23589.90475
 11
-21717.54875
 21
23589.90475
  0
LINE
  8
┌▓È4
 10
-22616.301
 20
23589.90475
 11
-22373.4825
 21
23730.096
  0
LINE
  8
┌▓È4
 10
-21960.36725
 20
23449.7135
 11
-21717.54875
 21
23589.90475
  0
POLYLINE
  8
┌▓È4
 66
     1
 70
     1
  0
VERTEX
  8
┌▓È4
 10
-23457.778
 20
24156.66025
  0
VERTEX
  8
┌▓È4
 10
-23507.778
 20
24156.66025
  0
VERTEX
  8
┌▓È4
 10
-23507.778
 20
23956.66025
  0
VERTEX
  8
┌▓È4
 10
-23457.778
 20
23956.66025
  0
SEQEND
  0
POLYLINE
  8
┌▓È4
 66
     1
 70
     1
  0
VERTEX
  8
┌▓È4
 10
-20855.86475
 20
24156.66025
  0
VERTEX
  8
┌▓È4
 10
-20905.86475
 20
24156.66025
  0
VERTEX
  8
┌▓È4
 10
-20905.86475
 20
23956.66025
  0
VERTEX
  8
┌▓È4
 10
-20855.86475
 20
23956.66025
  0
SEQEND
  0
LINE
  8
┌▓È4
 10
-19688.52325
 20
23589.90475
 11
-18789.771
 21
23589.90475
  0
LINE
  8
┌▓È4
 10
-19688.52325
 20
23589.90475
 11
-19445.70475
 21
23730.096
  0
LINE
  8
┌▓È4
 10
-19032.5895
 20
23449.7135
 11
-18789.771
 21
23589.90475
  0
POLYLINE
  8
┌▓È4
 66
     1
 70
     1
  0
VERTEX
  8
┌▓È4
 10
-20530.00025
 20
24156.66025
  0
VERTEX
  8
┌▓È4
 10
-20580.00025
 20
24156.66025
  0
VERTEX
  8
┌▓È4
 10
-20580.00025
 20
23956.66025
  0
VERTEX
  8
┌▓È4
 10
-20530.00025
 20
23956.66025
  0
SEQEND
  0
POLYLINE
  8
┌▓È4
 66
     1
 70
     1
  0
VERTEX
  8
┌▓È4
 10
-17928.087
 20
24156.66025
  0
VERTEX
  8
┌▓È4
 10
-17978.087
 20
24156.66025
  0
VERTEX
  8
┌▓È4
 10
-17978.087
 20
23956.66025
  0
VERTEX
  8
┌▓È4
 10
-17928.087
 20
23956.66025
  0
SEQEND
  0
LINE
  8
┌▓È4
 10
-16760.7455
 20
23589.90475
 11
-15861.99325
 21
23589.90475
  0
LINE
  8
┌▓È4
 10
-16760.7455
 20
23589.90475
 11
-16517.927
 21
23730.096
  0
LINE
  8
┌▓È4
 10
-16104.81175
 20
23449.7135
 11
-15861.99325
 21
23589.90475
  0
POLYLINE
  8
┌▓È4
 66
     1
 70
     1
  0
VERTEX
  8
┌▓È4
 10
-17602.2225
 20
24156.66025
  0
VERTEX
  8
┌▓È4
 10
-17652.2225
 20
24156.66025
  0
VERTEX
  8
┌▓È4
 10
-17652.2225
 20
23956.66025
  0
VERTEX
  8
┌▓È4
 10
-17602.2225
 20
23956.66025
  0
SEQEND
  0
POLYLINE
  8
┌▓È4
 66
     1
 70
     1
  0
VERTEX
  8
┌▓È4
 10
-15000.30925
 20
24156.66025
  0
VERTEX
  8
┌▓È4
 10
-15050.30925
 20
24156.66025
  0
VERTEX
  8
┌▓È4
 10
-15050.30925
 20
23956.66025
  0
VERTEX
  8
┌▓È4
 10
-15000.30925
 20
23956.66025
  0
SEQEND
  0
LINE
  8
┌▓È4
 10
-13832.96775
 20
23589.90475
 11
-12934.2155
 21
23589.90475
  0
LINE
  8
┌▓È4
 10
-13832.96775
 20
23589.90475
 11
-13590.14925
 21
23730.096
  0
LINE
  8
┌▓È4
 10
-13177.034
 20
23449.7135
 11
-12934.2155
 21
23589.90475
  0
POLYLINE
  8
┌▓È4
 66
     1
 70
     1
  0
VERTEX
  8
┌▓È4
 10
-14674.44475
 20
24156.66025
  0
VERTEX
  8
┌▓È4
 10
-14724.44475
 20
24156.66025
  0
VERTEX
  8
┌▓È4
 10
-14724.44475
 20
23956.66025
  0
VERTEX
  8
┌▓È4
 10
-14674.44475
 20
23956.66025
  0
SEQEND
  0
POLYLINE
  8
┌▓È4
 66
     1
 70
     1
  0
VERTEX
  8
┌▓È4
 10
-12072.5315
 20
24156.66025
  0
VERTEX
  8
┌▓È4
 10
-12122.5315
 20
24156.66025
  0
VERTEX
  8
┌▓È4
 10
-12122.5315
 20
23956.66025
  0
VERTEX
  8
┌▓È4
 10
-12072.5315
 20
23956.66025
  0
SEQEND
  0
LINE
  8
┌▓È4
 10
-10905.19
 20
23589.90475
 11
-10006.43775
 21
23589.90475
  0
LINE
  8
┌▓È4
 10
-10905.19
 20
23589.90475
 11
-10662.3715
 21
23730.096
  0
LINE
  8
┌▓È4
 10
-10249.25625
 20
23449.7135
 11
-10006.43775
 21
23589.90475
  0
POLYLINE
  8
┌▓È4
 66
     1
 70
     1
  0
VERTEX
  8
┌▓È4
 10
-11746.667
 20
24156.66025
  0
VERTEX
  8
┌▓È4
 10
-11796.667
 20
24156.66025
  0
VERTEX
  8
┌▓È4
 10
-11796.667
 20
23956.66025
  0
VERTEX
  8
┌▓È4
 10
-11746.667
 20
23956.66025
  0
SEQEND
  0
POLYLINE
  8
┌▓È4
 66
     1
 70
     1
  0
VERTEX
  8
┌▓È4
 10
-9144.75375
 20
24156.66025
  0
VERTEX
  8
┌▓È4
 10
-9194.75375
 20
24156.66025
  0
VERTEX
  8
┌▓È4
 10
-9194.75375
 20
23956.66025
  0
VERTEX
  8
┌▓È4
 10
-9144.75375
 20
23956.66025
  0
SEQEND
  0
LINE
  8
┌▓È4
 10
-7977.41225
 20
23589.90475
 11
-7078.66
 21
23589.90475
  0
LINE
  8
┌▓È4
 10
-7977.41225
 20
23589.90475
 11
-7734.59375
 21
23730.096
  0
LINE
  8
┌▓È4
 10
-7321.4785
 20
23449.7135
 11
-7078.66
 21
23589.90475
  0
POLYLINE
  8
┌▓È4
 66
     1
 70
     1
  0
VERTEX
  8
┌▓È4
 10
-8818.88925
 20
24156.66025
  0
VERTEX
  8
┌▓È4
 10
-8868.88925
 20
24156.66025
  0
VERTEX
  8
┌▓È4
 10
-8868.88925
 20
23956.66025
  0
VERTEX
  8
┌▓È4
 10
-8818.88925
 20
23956.66025
  0
SEQEND
  0
POLYLINE
  8
┌▓È4
 66
     1
 70
     1
  0
VERTEX
  8
┌▓È4
 10
-6216.976
 20
24156.66025
  0
VERTEX
  8
┌▓È4
 10
-6266.976
 20
24156.66025
  0
VERTEX
  8
┌▓È4
 10
-6266.976
 20
23956.66025
  0
VERTEX
  8
┌▓È4
 10
-6216.976
 20
23956.66025
  0
SEQEND
  0
CIRCLE
  8
┌▓È4
 10
-22107.47875
 20
22776.15825
 40
66.66675
  0
CIRCLE
  8
┌▓È4
 10
-19179.701
 20
22776.15825
 40
66.66675
  0
CIRCLE
  8
┌▓È4
 10
-16251.92325
 20
22776.15825
 40
66.66675
  0
CIRCLE
  8
┌▓È4
 10
-13324.1455
 20
22776.15825
 40
66.66675
  0
CIRCLE
  8
┌▓È4
 10
-10396.36775
 20
22776.15825
 40
66.66675
  0
CIRCLE
  8
┌▓È4
 10
-7468.59
 20
22776.15825
 40
66.66675
  0
POLYLINE
  8
┌▓È4
 66
     1
 70
     1
  0
VERTEX
  8
┌▓È4
 10
-15587.09725
 20
13915.23675
  0
VERTEX
  8
┌▓È4
 10
-15587.09725
 20
14748.57
  0
VERTEX
  8
┌▓È4
 10
-14753.76375
 20
14748.57
  0
VERTEX
  8
┌▓È4
 10
-14753.76375
 20
13915.23675
  0
SEQEND
  0
POLYLINE
  8
┌▓È4
 66
     1
 70
     1
  0
VERTEX
  8
┌▓È4
 10
-15537.09725
 20
13965.23675
  0
VERTEX
  8
┌▓È4
 10
-15537.09725
 20
14698.57
  0
VERTEX
  8
┌▓È4
 10
-14803.76375
 20
14698.57
  0
VERTEX
  8
┌▓È4
 10
-14803.76375
 20
13965.23675
  0
SEQEND
  0
INSERT
  2
*GRP_0010
  8
┌▓È4
 10
0.0
 20
0.0
  0
INSERT
  2
*GRP_0011
  8
┌▓È4
 10
0.0
 20
0.0
  0
LINE
  8
┌▓È4
  6
CONTINUOUS
 10
-5162.65225
 20
15111.87425
 11
-5217.623
 21
15056.9035
  0
LINE
  8
┌▓È4
 10
-4956.41375
 20
14905.635
 11
-5215.68625
 21
15164.9075
  0
LINE
  8
┌▓È4
 10
-5156.7605
 20
15223.8335
 11
-4897.488
 21
14964.561
  0
LINE
  8
┌▓È4
 10
-4897.488
 20
14964.561
 11
-4956.41375
 21
14905.635
  0
LINE
  8
┌▓È4
 10
-5215.68625
 20
15164.9075
 11
-5156.7605
 21
15223.8335
  0
INSERT
  2
*GRP_0051
  8
┌▓È4
 10
0.0
 20
0.0
  0
INSERT
  2
*GRP_0052
  8
┌▓È4
 10
0.0
 20
0.0
  0
LINE
  8
┌▓È4
 10
-3784.05925
 20
-11169.04575
 11
-21826.25
 21
-11169.04575
  0
INSERT
  2
*GRP_0074
  8
┌▓È4
 10
0.0
 20
0.0
  0
INSERT
  2
*GRP_0075
  8
┌▓È4
 10
0.0
 20
0.0
  0
INSERT
  2
*GRP_0076
  8
┌▓È4
 10
0.0
 20
0.0
  0
INSERT
  2
*GRP_0077
  8
┌▓È4
 10
0.0
 20
0.0
  0
INSERT
  2
*GRP_0078
  8
┌▓È4
 10
0.0
 20
0.0
  0
INSERT
  2
*GRP_0079
  8
┌▓È4
 10
0.0
 20
0.0
  0
INSERT
  2
*GRP_0080
  8
┌▓È4
 10
0.0
 20
0.0
  0
INSERT
  2
*GRP_0081
  8
┌▓È4
 10
0.0
 20
0.0
  0
LINE
  8
┌▓È4
 10
5335.1405
 20
-4293.23375
 11
5335.1405
 21
-4589.9005
  0
LINE
  8
┌▓È4
 10
5335.1405
 20
-4589.9005
 11
5485.1405
 21
-4589.9005
  0
LINE
  8
┌▓È4
 10
5485.1405
 20
-4293.23375
 11
5485.1405
 21
-4589.9005
  0
LINE
  8
┌▓È4
 10
5485.1405
 20
-4293.23375
 11
5335.1405
 21
-4589.9005
  0
LINE
  8
┌▓È4
 10
5335.1405
 20
-4293.23375
 11
5485.1405
 21
-4293.23375
  0
INSERT
  2
*GRP_0082
  8
┌▓È4
 10
0.0
 20
0.0
  0
INSERT
  2
*GRP_0083
  8
┌▓È4
 10
0.0
 20
0.0
  0
INSERT
  2
*GRP_0084
  8
┌▓È4
 10
0.0
 20
0.0
  0
INSERT
  2
*GRP_0085
  8
┌▓È4
 10
0.0
 20
0.0
  0
INSERT
  2
*GRP_0086
  8
┌▓È4
 10
0.0
 20
0.0
  0
INSERT
  2
*GRP_0087
  8
┌▓È4
 10
0.0
 20
0.0
  0
INSERT
  2
*GRP_0088
  8
┌▓È4
 10
0.0
 20
0.0
  0
INSERT
  2
*GRP_0089
  8
┌▓È4
 10
0.0
 20
0.0
  0
INSERT
  2
*GRP_0090
  8
┌▓È4
 10
0.0
 20
0.0
  0
INSERT
  2
*GRP_0091
  8
┌▓È4
 10
0.0
 20
0.0
  0
INSERT
  2
*GRP_0092
  8
┌▓È4
 10
0.0
 20
0.0
  0
INSERT
  2
*GRP_0093
  8
┌▓È4
 10
0.0
 20
0.0
  0
INSERT
  2
*GRP_0094
  8
┌▓È4
 10
0.0
 20
0.0
  0
INSERT
  2
*GRP_0095
  8
┌▓È4
 10
0.0
 20
0.0
  0
POLYLINE
  8
┌▓È5
 66
     1
 70
     1
  0
VERTEX
  8
┌▓È5
 10
-6021.36775
 20
25722.85375
  0
VERTEX
  8
┌▓È5
 10
-23688.03425
 20
25722.85375
  0
VERTEX
  8
┌▓È5
 10
-23688.03425
 20
21889.52025
  0
VERTEX
  8
┌▓È5
 10
-6021.36775
 20
21889.52025
  0
SEQEND
  0
LINE
  8
┌▓È5
 10
-23588.03425
 20
22322.8535
 11
-6121.36775
 21
22322.8535
  0
LINE
  8
┌▓È5
 10
-23688.03425
 20
22222.8535
 11
-6021.36775
 21
22222.8535
  0
LINE
  8
┌▓È5
 10
-23588.03425
 20
22322.8535
 11
-23588.03425
 21
25572.85375
  0
LINE
  8
┌▓È5
 10
-23588.03425
 20
25572.85375
 11
-6121.36775
 21
25572.85375
  0
LINE
  8
┌▓È5
 10
-6121.36775
 20
25572.85375
 11
-6121.36775
 21
22322.8535
  0
LINE
  8
┌▓È5
 10
-20660.2565
 20
25572.85375
 11
-20660.2565
 21
22322.8535
  0
LINE
  8
┌▓È5
 10
-17732.47875
 20
25572.85375
 11
-17732.47875
 21
22322.8535
  0
LINE
  8
┌▓È5
 10
-14804.701
 20
25572.85375
 11
-14804.701
 21
22322.8535
  0
LINE
  8
┌▓È5
 10
-11876.92325
 20
25572.85375
 11
-11876.92325
 21
22322.8535
  0
LINE
  8
┌▓È5
 10
-8949.1455
 20
25572.85375
 11
-8949.1455
 21
22322.8535
  0
LINE
  8
┌▓È5
 10
-20760.2565
 20
25572.85375
 11
-20760.2565
 21
22322.8535
  0
LINE
  8
┌▓È5
 10
-17832.47875
 20
25572.85375
 11
-17832.47875
 21
22322.8535
  0
LINE
  8
┌▓È5
 10
-14904.701
 20
25572.85375
 11
-14904.701
 21
22322.8535
  0
LINE
  8
┌▓È5
 10
-11976.92325
 20
25572.85375
 11
-11976.92325
 21
22322.8535
  0
LINE
  8
┌▓È5
 10
-9049.1455
 20
25572.85375
 11
-9049.1455
 21
22322.8535
  0
LINE
  8
┌▓È5
 10
-22240.812
 20
22322.8535
 11
-22240.812
 21
25572.85375
  0
LINE
  8
┌▓È5
 10
-19313.03425
 20
22322.8535
 11
-19313.03425
 21
25572.85375
  0
LINE
  8
┌▓È5
 10
-16385.2565
 20
22322.8535
 11
-16385.2565
 21
25572.85375
  0
LINE
  8
┌▓È5
 10
-13457.47875
 20
22322.8535
 11
-13457.47875
 21
25572.85375
  0
LINE
  8
┌▓È5
 10
-10529.701
 20
22322.8535
 11
-10529.701
 21
25572.85375
  0
LINE
  8
┌▓È5
 10
-7601.92325
 20
22322.8535
 11
-7601.92325
 21
25572.85375
  0
LINE
  8
┌▓È5
 10
-21138.25175
 20
10506.9035
 11
-21138.25175
 21
5840.23675
  0
LINE
  8
┌▓È5
 10
-21054.9185
 20
10423.57025
 11
-21054.9185
 21
7840.23675
  0
LINE
  8
┌▓È5
 10
-21054.9185
 20
7756.9035
 11
-21054.9185
 21
5923.57
  0
LINE
  8
┌▓È5
 10
-7374.85675
 20
10506.9035
 11
-5708.19
 21
10506.9035
  0
LINE
  8
┌▓È5
 10
-5708.19
 20
5840.23675
 11
-7374.85675
 21
5840.23675
  0
LINE
  8
┌▓È5
 10
-7374.85675
 20
6840.23675
 11
-5778.19
 21
6840.23675
  0
LINE
  8
┌▓È5
 10
-5778.19
 20
5923.57
 11
-7374.85675
 21
5923.57
  0
LINE
  8
┌▓È5
 10
-7374.85675
 20
5840.23675
 11
-7374.85675
 21
5923.57
  0
LINE
  8
┌▓È5
 10
-7374.85675
 20
6756.9035
 11
-5778.19
 21
6756.9035
  0
LINE
  8
┌▓È5
 10
-7374.85675
 20
6840.23675
 11
-7374.85675
 21
6756.9035
  0
LINE
  8
┌▓È5
 10
-7374.85675
 20
10423.57025
 11
-5708.19
 21
10423.57025
  0
LINE
  8
┌▓È5
 10
-7374.85675
 20
10423.57025
 11
-7374.85675
 21
10506.9035
  0
LINE
  8
┌▓È5
 10
-5708.19
 20
10423.57025
 11
-5708.19
 21
10506.9035
  0
LINE
  8
┌▓È5
 10
-5708.19
 20
7840.23675
 11
-7374.85675
 21
7840.23675
  0
LINE
  8
┌▓È5
 10
-5708.19
 20
7840.23675
 11
-5708.19
 21
5840.23675
  0
LINE
  8
┌▓È5
 10
-7374.85675
 20
7756.9035
 11
-5778.19
 21
7756.9035
  0
LINE
  8
┌▓È5
 10
-5778.19
 20
5923.57
 11
-5778.19
 21
7756.9035
  0
LINE
  8
┌▓È5
 10
-7374.85675
 20
7840.23675
 11
-7374.85675
 21
7756.9035
  0
LINE
  8
┌▓È5
 10
-5708.19
 20
8840.237
 11
-7374.85675
 21
8840.237
  0
LINE
  8
┌▓È5
 10
-5708.19
 20
8770.237
 11
-7374.85675
 21
8770.237
  0
LINE
  8
┌▓È5
 10
-7374.85675
 20
8840.237
 11
-7374.85675
 21
8770.237
  0
LINE
  8
┌▓È5
 10
-5708.19
 20
8840.237
 11
-5708.19
 21
8770.237
  0
LINE
  8
┌▓È5
 10
13794.8615
 20
-11369.04575
 11
13818.19475
 21
-11355.57425
  0
ARC
  8
┌▓È5
 10
13808.194514
 20
-11338.253751
 40
20.0
 50
299.999988
 51
360.0
  0
ARC
  8
┌▓È5
 10
13848.194514
 20
-11189.04576
 40
20.0
 50
90.0
 51
180.0
  0
LINE
  8
┌▓È5
 10
13828.19475
 20
-11189.04575
 11
13828.19475
 21
-11338.25375
  0
LINE
  8
┌▓È5
 10
13868.19475
 20
-11219.04575
 11
14168.19475
 21
-11219.04575
  0
LINE
  8
┌▓È5
 10
13868.19475
 20
-11219.04575
 11
14168.19475
 21
-11369.04575
  0
ARC
  8
┌▓È5
 10
14318.119644
 20
-8435.787331
 40
66.741623
 50
0.064241
 51
89.935759
  0
LINE
  8
┌▓È5
 10
14218.19475
 20
-11369.04575
 11
14218.19475
 21
-8502.37925
  0
LINE
  8
┌▓È5
 10
14168.19475
 20
-11369.04575
 11
14168.19475
 21
-8502.37925
  0
LINE
  8
┌▓È5
 10
13868.19475
 20
-11369.04575
 11
13868.19475
 21
-8502.37925
  0
LINE
  8
┌▓È5
 10
13848.19475
 20
-11369.04575
 11
13848.19475
 21
-8502.37925
  0
LINE
  8
┌▓È5
 10
13868.19475
 20
-8652.37925
 11
14168.19475
 21
-8652.37925
  0
LINE
  8
┌▓È5
 10
14168.19475
 20
-8502.37925
 11
13868.19475
 21
-8652.37925
  0
ARC
  8
┌▓È5
 10
14318.044894
 20
-8435.637585
 40
66.741623
 50
270.064241
 51
359.935759
  0
LINE
  8
┌▓È5
 10
14384.78675
 20
-8435.7125
 11
14384.8615
 21
-8435.7125
  0
LINE
  8
┌▓È5
 10
14284.86075
 20
-8369.04575
 11
14284.86075
 21
-8379.04575
  0
LINE
  8
┌▓È5
 10
14218.19475
 20
-9602.379
 11
14168.19475
 21
-9602.379
  0
LINE
  8
┌▓È5
 10
14218.19475
 20
-9269.04575
 11
14168.19475
 21
-9269.04575
  0
LINE
  8
┌▓È5
 10
14218.19475
 20
-8935.7125
 11
14168.19475
 21
-8935.7125
  0
LINE
  8
┌▓È5
 10
14218.19475
 20
-8602.379
 11
14168.19475
 21
-8602.379
  0
LINE
  8
┌▓È5
 10
14218.19475
 20
-11035.7125
 11
14168.19475
 21
-11035.7125
  0
LINE
  8
┌▓È5
 10
14218.19475
 20
-10602.379
 11
14168.19475
 21
-10602.379
  0
LINE
  8
┌▓È5
 10
14218.19475
 20
-10269.04575
 11
14168.19475
 21
-10269.04575
  0
LINE
  8
┌▓È5
 10
14218.19475
 20
-9935.7125
 11
14168.19475
 21
-9935.7125
  0
LINE
  8
┌▓È5
 10
14218.19475
 20
-10935.7125
 11
14168.19475
 21
-10935.7125
  0
ARC
  8
┌▓È5
 10
12738.194618
 20
-8389.04576
 40
20.0
 50
-270.0
 51
-180.0
  0
ARC
  8
┌▓È5
 10
12738.265501
 20
-8482.308294
 40
20.071008
 50
-179.797655
 51
-90.202345
  0
LINE
  8
┌▓È5
 10
12738.195
 20
-8502.37925
 11
14318.19475
 21
-8502.37925
  0
LINE
  8
┌▓È5
 10
14284.86075
 20
-8379.04575
 11
12818.195
 21
-8379.04575
  0
LINE
  8
┌▓È5
 10
12818.195
 20
-8379.04575
 11
12818.195
 21
-8369.04575
  0
LINE
  8
┌▓È5
 10
14318.19475
 20
-8369.04575
 11
12738.195
 21
-8369.04575
  0
LINE
  8
┌▓È5
 10
12718.195
 20
-8482.37925
 11
12718.195
 21
-8389.04575
  0
LINE
  8
┌▓È5
 10
13484.86125
 20
-8379.04575
 11
13484.86125
 21
-8502.37925
  0
LINE
  8
┌▓È5
 10
13484.86125
 20
-8379.04575
 11
13484.86125
 21
-8502.37925
  0
LINE
  8
┌▓È5
 10
13618.1945
 20
-8379.04575
 11
13618.1945
 21
-8502.37925
  0
LINE
  8
┌▓È5
 10
13484.86125
 20
-8502.37925
 11
13618.1945
 21
-8379.04575
  0
LINE
  8
┌▓È5
 10
13618.1945
 20
-8379.04575
 11
13618.1945
 21
-8502.37925
  0
LINE
  8
┌▓È5
 10
13751.52775
 20
-8379.04575
 11
13751.52775
 21
-8502.37925
  0
LINE
  8
┌▓È5
 10
13618.1945
 20
-8502.37925
 11
13751.52775
 21
-8379.04575
  0
LINE
  8
┌▓È5
 10
13751.52775
 20
-8379.04575
 11
13751.52775
 21
-8502.37925
  0
LINE
  8
┌▓È5
 10
13884.861
 20
-8379.04575
 11
13884.861
 21
-8502.37925
  0
LINE
  8
┌▓È5
 10
13751.52775
 20
-8502.37925
 11
13884.861
 21
-8379.04575
  0
LINE
  8
┌▓È5
 10
13884.861
 20
-8379.04575
 11
13884.861
 21
-8502.37925
  0
LINE
  8
┌▓È5
 10
14018.19425
 20
-8379.04575
 11
14018.19425
 21
-8502.37925
  0
LINE
  8
┌▓È5
 10
13884.861
 20
-8502.37925
 11
14018.19425
 21
-8379.04575
  0
LINE
  8
┌▓È5
 10
14018.19425
 20
-8379.04575
 11
14018.19425
 21
-8502.37925
  0
LINE
  8
┌▓È5
 10
14151.5275
 20
-8379.04575
 11
14151.5275
 21
-8502.37925
  0
LINE
  8
┌▓È5
 10
14018.19425
 20
-8502.37925
 11
14151.5275
 21
-8379.04575
  0
LINE
  8
┌▓È5
 10
14151.5275
 20
-8379.04575
 11
14151.5275
 21
-8502.37925
  0
LINE
  8
┌▓È5
 10
14284.86075
 20
-8379.04575
 11
14284.86075
 21
-8502.37925
  0
LINE
  8
┌▓È5
 10
14151.5275
 20
-8502.37925
 11
14284.86075
 21
-8379.04575
  0
LINE
  8
┌▓È5
 10
13351.528
 20
-8379.04575
 11
13351.528
 21
-8502.37925
  0
LINE
  8
┌▓È5
 10
13351.528
 20
-8379.04575
 11
13351.528
 21
-8502.37925
  0
LINE
  8
┌▓È5
 10
13484.86125
 20
-8379.04575
 11
13484.86125
 21
-8502.37925
  0
LINE
  8
┌▓È5
 10
13351.528
 20
-8502.37925
 11
13484.86125
 21
-8379.04575
  0
LINE
  8
┌▓È5
 10
13484.86125
 20
-8379.04575
 11
13484.86125
 21
-8502.37925
  0
LINE
  8
┌▓È5
 10
13218.19475
 20
-8379.04575
 11
13218.19475
 21
-8502.37925
  0
LINE
  8
┌▓È5
 10
13218.19475
 20
-8379.04575
 11
13218.19475
 21
-8502.37925
  0
LINE
  8
┌▓È5
 10
13351.528
 20
-8379.04575
 11
13351.528
 21
-8502.37925
  0
LINE
  8
┌▓È5
 10
13218.19475
 20
-8502.37925
 11
13351.528
 21
-8379.04575
  0
LINE
  8
┌▓È5
 10
13351.528
 20
-8379.04575
 11
13351.528
 21
-8502.37925
  0
LINE
  8
┌▓È5
 10
13084.8615
 20
-8379.04575
 11
13084.8615
 21
-8502.37925
  0
LINE
  8
┌▓È5
 10
13084.8615
 20
-8379.04575
 11
13084.8615
 21
-8502.37925
  0
LINE
  8
┌▓È5
 10
13218.19475
 20
-8379.04575
 11
13218.19475
 21
-8502.37925
  0
LINE
  8
┌▓È5
 10
13084.8615
 20
-8502.37925
 11
13218.19475
 21
-8379.04575
  0
LINE
  8
┌▓È5
 10
13218.19475
 20
-8379.04575
 11
13218.19475
 21
-8502.37925
  0
LINE
  8
┌▓È5
 10
12951.52825
 20
-8379.04575
 11
12951.52825
 21
-8502.37925
  0
LINE
  8
┌▓È5
 10
13084.8615
 20
-8379.04575
 11
13084.8615
 21
-8502.37925
  0
LINE
  8
┌▓È5
 10
12951.52825
 20
-8502.37925
 11
13084.8615
 21
-8379.04575
  0
LINE
  8
┌▓È5
 10
13084.8615
 20
-8379.04575
 11
13084.8615
 21
-8502.37925
  0
LINE
  8
┌▓È5
 10
12951.52825
 20
-8379.04575
 11
12951.52825
 21
-8502.37925
  0
LINE
  8
┌▓È5
 10
12951.52825
 20
-8379.04575
 11
12951.52825
 21
-8502.37925
  0
LINE
  8
┌▓È5
 10
12818.195
 20
-8379.04575
 11
12818.195
 21
-8502.37925
  0
LINE
  8
┌▓È5
 10
12951.52825
 20
-8379.04575
 11
12951.52825
 21
-8502.37925
  0
LINE
  8
┌▓È5
 10
12818.195
 20
-8502.37925
 11
12951.52825
 21
-8379.04575
  0
LINE
  8
┌▓È5
 10
12951.52825
 20
-8379.04575
 11
12951.52825
 21
-8502.37925
  0
LINE
  8
┌▓È5
  6
CONTINUOUS
 10
3388.679
 20
-8502.37925
 11
3388.679
 21
-10435.7125
  0
ARC
  8
┌▓È5
 10
3242.083122
 20
-8482.308284
 40
20.071008
 50
-179.797655
 51
-90.202345
  0
LINE
  8
┌▓È5
  6
CONTINUOUS
 10
3438.679
 20
-8502.37925
 11
3438.679
 21
-10369.04575
  0
LINE
  8
┌▓È5
 10
3322.01225
 20
-8379.04575
 11
3322.01225
 21
-8369.04575
  0
ARC
  8
┌▓È5
 10
3242.012239
 20
-8389.04575
 40
20.0
 50
90.0
 51
180.0
  0
LINE
  8
┌▓È5
 10
3222.01225
 20
-8482.37925
 11
3222.01225
 21
-8389.04575
  0
LINE
  8
┌▓È5
 10
4722.012
 20
-11369.04575
 11
4722.012
 21
-10369.04575
  0
LINE
  8
┌▓È5
 10
4722.012
 20
-9369.04575
 11
4722.012
 21
-9435.7125
  0
LINE
  8
┌▓È5
 10
4722.012
 20
-10369.04575
 11
3388.679
 21
-10369.04575
  0
LINE
  8
┌▓È5
 10
4672.012
 20
-11369.04575
 11
4672.012
 21
-10369.04575
  0
LINE
  8
┌▓È5
 10
4672.012
 20
-10435.7125
 11
3388.679
 21
-10435.7125
  0
LINE
  8
┌▓È5
 10
3438.679
 20
-9369.04575
 11
4722.012
 21
-9369.04575
  0
LINE
  8
┌▓È5
 10
3438.679
 20
-9435.7125
 11
4722.012
 21
-9435.7125
  0
ARC
  8
┌▓È5
 10
4822.556686
 20
-8435.167775
 40
66.124268
 50
-0.472002
 51
90.472002
  0
ARC
  8
┌▓È5
 10
4822.01196
 20
-8435.712417
 40
66.66675
 50
-90.0
 51
0.0
  0
LINE
  8
┌▓È5
 10
3242.08325
 20
-8502.37925
 11
4822.012
 21
-8502.37925
  0
LINE
  8
┌▓È5
 10
4888.67875
 20
-8435.7125
 11
4888.67875
 21
-8435.7125
  0
LINE
  8
┌▓È5
 10
4788.678
 20
-8369.04575
 11
4788.678
 21
-8379.04575
  0
LINE
  8
┌▓È5
 10
4788.678
 20
-8379.04575
 11
3322.01225
 21
-8379.04575
  0
LINE
  8
┌▓È5
 10
4822.012
 20
-8369.04575
 11
3242.01225
 21
-8369.04575
  0
LINE
  8
┌▓È5
 10
4722.012
 20
-11035.7125
 11
4672.012
 21
-11035.7125
  0
LINE
  8
┌▓È5
 10
4722.012
 20
-10602.379
 11
4672.012
 21
-10602.379
  0
LINE
  8
┌▓È5
 10
4722.012
 20
-10935.7125
 11
4672.012
 21
-10935.7125
  0
LINE
  8
┌▓È5
 10
4388.67825
 20
-8379.04575
 11
4388.67825
 21
-8502.37925
  0
LINE
  8
┌▓È5
 10
4388.67825
 20
-8379.04575
 11
4388.67825
 21
-8502.37925
  0
LINE
  8
┌▓È5
 10
4522.0115
 20
-8379.04575
 11
4522.0115
 21
-8502.37925
  0
LINE
  8
┌▓È5
 10
4388.67825
 20
-8502.37925
 11
4522.0115
 21
-8379.04575
  0
LINE
  8
┌▓È5
 10
4522.0115
 20
-8379.04575
 11
4522.0115
 21
-8502.37925
  0
LINE
  8
┌▓È5
 10
4655.34475
 20
-8379.04575
 11
4655.34475
 21
-8502.37925
  0
LINE
  8
┌▓È5
 10
4522.0115
 20
-8502.37925
 11
4655.34475
 21
-8379.04575
  0
LINE
  8
┌▓È5
 10
4655.34475
 20
-8379.04575
 11
4655.34475
 21
-8502.37925
  0
LINE
  8
┌▓È5
 10
4788.678
 20
-8379.04575
 11
4788.678
 21
-8502.37925
  0
LINE
  8
┌▓È5
 10
4655.34475
 20
-8502.37925
 11
4788.678
 21
-8379.04575
  0
LINE
  8
┌▓È5
 10
3322.118
 20
-8379.04575
 11
3322.118
 21
-8502.37925
  0
LINE
  8
┌▓È5
 10
3455.45125
 20
-8379.04575
 11
3455.45125
 21
-8502.37925
  0
LINE
  8
┌▓È5
 10
3322.118
 20
-8502.37925
 11
3455.45125
 21
-8379.04575
  0
LINE
  8
┌▓È5
 10
3455.45125
 20
-8379.04575
 11
3455.45125
 21
-8502.37925
  0
LINE
  8
┌▓È5
 10
3588.7845
 20
-8379.04575
 11
3588.7845
 21
-8502.37925
  0
LINE
  8
┌▓È5
 10
3455.45125
 20
-8502.37925
 11
3588.7845
 21
-8379.04575
  0
LINE
  8
┌▓È5
 10
3588.7845
 20
-8379.04575
 11
3588.7845
 21
-8502.37925
  0
LINE
  8
┌▓È5
 10
3722.11775
 20
-8379.04575
 11
3722.11775
 21
-8502.37925
  0
LINE
  8
┌▓È5
 10
3588.7845
 20
-8502.37925
 11
3722.11775
 21
-8379.04575
  0
LINE
  8
┌▓È5
 10
3722.11775
 20
-8379.04575
 11
3722.11775
 21
-8502.37925
  0
LINE
  8
┌▓È5
 10
3855.451
 20
-8379.04575
 11
3855.451
 21
-8502.37925
  0
LINE
  8
┌▓È5
 10
3722.11775
 20
-8502.37925
 11
3855.451
 21
-8379.04575
  0
LINE
  8
┌▓È5
 10
3855.451
 20
-8379.04575
 11
3855.451
 21
-8502.37925
  0
LINE
  8
┌▓È5
 10
3855.451
 20
-8379.04575
 11
3855.451
 21
-8502.37925
  0
LINE
  8
┌▓È5
 10
3855.451
 20
-8379.04575
 11
3855.451
 21
-8502.37925
  0
LINE
  8
┌▓È5
 10
3988.78425
 20
-8379.04575
 11
3988.78425
 21
-8502.37925
  0
LINE
  8
┌▓È5
 10
3855.451
 20
-8502.37925
 11
3988.78425
 21
-8379.04575
  0
LINE
  8
┌▓È5
 10
3988.78425
 20
-8379.04575
 11
3988.78425
 21
-8502.37925
  0
LINE
  8
┌▓È5
 10
3988.78425
 20
-8379.04575
 11
3988.78425
 21
-8502.37925
  0
LINE
  8
┌▓È5
 10
3988.78425
 20
-8379.04575
 11
3988.78425
 21
-8502.37925
  0
LINE
  8
┌▓È5
 10
4122.1175
 20
-8379.04575
 11
4122.1175
 21
-8502.37925
  0
LINE
  8
┌▓È5
 10
3988.78425
 20
-8502.37925
 11
4122.1175
 21
-8379.04575
  0
LINE
  8
┌▓È5
 10
4122.1175
 20
-8379.04575
 11
4122.1175
 21
-8502.37925
  0
LINE
  8
┌▓È5
 10
4122.1175
 20
-8379.04575
 11
4122.1175
 21
-8502.37925
  0
LINE
  8
┌▓È5
 10
4122.1175
 20
-8379.04575
 11
4122.1175
 21
-8502.37925
  0
LINE
  8
┌▓È5
 10
4255.45075
 20
-8379.04575
 11
4255.45075
 21
-8502.37925
  0
LINE
  8
┌▓È5
 10
4122.1175
 20
-8502.37925
 11
4255.45075
 21
-8379.04575
  0
LINE
  8
┌▓È5
 10
4255.45075
 20
-8379.04575
 11
4255.45075
 21
-8502.37925
  0
LINE
  8
┌▓È5
 10
4255.45075
 20
-8379.04575
 11
4255.45075
 21
-8502.37925
  0
LINE
  8
┌▓È5
 10
4255.45075
 20
-8379.04575
 11
4255.45075
 21
-8502.37925
  0
LINE
  8
┌▓È5
 10
4388.784
 20
-8379.04575
 11
4388.784
 21
-8502.37925
  0
LINE
  8
┌▓È5
 10
4255.45075
 20
-8502.37925
 11
4388.784
 21
-8379.04575
  0
LINE
  8
┌▓È5
 10
4388.784
 20
-8379.04575
 11
4388.784
 21
-8502.37925
  0
LINE
  8
┌▓È5
  6
CONTINUOUS
 10
-20112.03575
 20
-3139.90075
 11
-21078.7025
 21
-2173.234
  0
ARC
  8
┌▓È5
  6
CONTINUOUS
 10
-20112.037817
 20
-3139.900887
 40
1666.666667
 50
225.0
 51
270.0
  0
LINE
  8
┌▓È5
  6
CONTINUOUS
 10
-21078.7025
 20
-2173.234
 11
-21826.25
 21
-2173.234
  0
LINE
  8
┌▓È5
  6
CONTINUOUS
 10
-21290.5475
 20
-4318.41225
 11
-22297.655
 21
-3311.30475
  0
ARC
  8
┌▓È5
  6
CONTINUOUS
 10
-21826.25138
 20
-2839.900887
 40
666.666667
 50
90.0
 51
225.0
  0
LINE
  8
┌▓È5
  6
CONTINUOUS
 10
-5284.05925
 20
-4806.56725
 11
-20112.03675
 21
-4806.56725
  0
ARC
  8
┌▓È5
  6
CONTINUOUS
 10
-5284.060421
 20
-3139.900887
 40
1666.666667
 50
-90.0
 51
0.0
  0
LINE
  8
┌▓È5
 10
-3617.3925
 20
-3139.90075
 11
-3617.3925
 21
-1473.234
  0
LINE
  8
┌▓È5
  6
CONTINUOUS
 10
-3617.3925
 20
-1473.234
 11
-5284.05925
 21
-1473.234
  0
LINE
  8
┌▓È5
  6
CONTINUOUS
 10
-20112.03575
 20
-3139.90075
 11
-5284.05925
 21
-3139.90075
  0
LINE
  8
┌▓È5
 10
-5284.05925
 20
-1473.234
 11
-5284.05925
 21
-3139.90075
  0
LINE
  8
┌▓È5
 10
-3784.05925
 20
-8502.37925
 11
-3784.05925
 21
-11369.04575
  0
ARC
  8
┌▓È5
 10
-3683.514581
 20
-8435.167775
 40
66.124268
 50
-0.472002
 51
90.472002
  0
ARC
  8
┌▓È5
 10
-3684.059307
 20
-8435.712417
 40
66.66675
 50
-90.0
 51
0.0
  0
LINE
  8
┌▓È5
 10
-3617.3925
 20
-8435.7125
 11
-3617.3925
 21
-8435.7125
  0
ARC
  8
┌▓È5
 10
-22426.474985
 20
-8435.167901
 40
66.124268
 50
89.527998
 51
180.472002
  0
ARC
  8
┌▓È5
 10
-22425.93026
 20
-8435.712543
 40
66.66675
 50
180.0
 51
270.0
  0
LINE
  8
┌▓È5
 10
-22492.597
 20
-8435.71275
 11
-22492.597
 21
-8435.71275
  0
LINE
  8
┌▓È5
 10
-22325.93025
 20
-11369.04575
 11
-3784.05925
 21
-11369.04575
  0
LINE
  8
┌▓È5
 10
-22425.93025
 20
-8369.04575
 11
-3684.05925
 21
-8369.04575
  0
LINE
  8
┌▓È5
 10
-22425.93025
 20
-8502.37925
 11
-3684.05925
 21
-8502.37925
  0
LINE
  8
┌▓È5
 10
-14420.43075
 20
10506.9035
 11
-14420.43075
 21
7756.9035
  0
LINE
  8
┌▓È5
 10
-14337.0975
 20
7840.23675
 11
-14337.0975
 21
10423.57025
  0
LINE
  8
┌▓È5
 10
-12253.764
 20
10506.9035
 11
-12253.764
 21
7756.9035
  0
LINE
  8
┌▓È5
 10
-12337.09725
 20
7840.23675
 11
-12337.09725
 21
10423.57025
  0
LINE
  8
┌▓È5
 10
-14420.43075
 20
10506.9035
 11
-12253.764
 21
10506.9035
  0
LINE
  8
┌▓È5
 10
-14420.43075
 20
10423.57025
 11
-12253.764
 21
10423.57025
  0
LINE
  8
┌▓È5
 10
-12253.764
 20
7756.9035
 11
-14420.43075
 21
7756.9035
  0
LINE
  8
┌▓È5
 10
-14420.43075
 20
7840.23675
 11
-12253.764
 21
7840.23675
  0
LINE
  8
┌▓È5
 10
-14337.0975
 20
8756.90375
 11
-12337.09725
 21
8756.90375
  0
LINE
  8
┌▓È5
 10
-14337.0975
 20
8840.237
 11
-12337.09725
 21
8840.237
  0
LINE
  8
┌▓È5
 10
-21138.25175
 20
10506.9035
 11
-18971.585
 21
10506.9035
  0
LINE
  8
┌▓È5
 10
-18971.585
 20
10506.9035
 11
-18971.585
 21
5840.23675
  0
LINE
  8
┌▓È5
 10
-18971.585
 20
5840.23675
 11
-21138.25175
 21
5840.23675
  0
LINE
  8
┌▓È5
 10
-21138.25175
 20
10423.57025
 11
-18971.585
 21
10423.57025
  0
LINE
  8
┌▓È5
 10
-18971.585
 20
5923.57
 11
-21138.25175
 21
5923.57
  0
LINE
  8
┌▓È5
 10
-19054.91825
 20
6840.23675
 11
-21054.9185
 21
6840.23675
  0
LINE
  8
┌▓È5
 10
-19054.91825
 20
6756.9035
 11
-21054.9185
 21
6756.9035
  0
LINE
  8
┌▓È5
 10
-21138.25175
 20
7840.23675
 11
-18971.585
 21
7840.23675
  0
LINE
  8
┌▓È5
 10
-21138.25175
 20
7756.9035
 11
-18971.585
 21
7756.9035
  0
LINE
  8
┌▓È5
 10
-19054.91825
 20
10423.57025
 11
-19054.91825
 21
7840.23675
  0
LINE
  8
┌▓È5
 10
-19054.91825
 20
7756.9035
 11
-19054.91825
 21
5923.57
  0
LINE
  8
┌▓È5
 10
-19054.91825
 20
8756.90375
 11
-21054.9185
 21
8756.90375
  0
LINE
  8
┌▓È5
 10
-19054.91825
 20
8840.237
 11
-21054.9185
 21
8840.237
  0
LINE
  8
┌▓È5
  6
CONTINUOUS
 10
-14337.09725
 20
13431.90325
 11
-12337.09725
 21
13431.90325
  0
LINE
  8
┌▓È5
  6
CONTINUOUS
 10
-14337.09725
 20
15098.57
 11
-12337.09725
 21
15098.57
  0
LINE
  8
┌▓È5
  6
CONTINUOUS
 10
-14337.09725
 20
13431.90325
 11
-14337.09725
 21
13431.90325
  0
LINE
  8
┌▓È5
  6
CONTINUOUS
 10
-12337.09725
 20
13432.84075
 11
-12337.09725
 21
13431.90325
  0
LINE
  8
┌▓È5
 10
4298.67875
 20
-11369.04575
 11
4322.012
 21
-11355.57425
  0
ARC
  8
┌▓È5
 10
4312.011764
 20
-11338.253751
 40
20.0
 50
299.999988
 51
360.0
  0
ARC
  8
┌▓È5
 10
4352.011764
 20
-11189.04576
 40
20.0
 50
90.0
 51
180.0
  0
LINE
  8
┌▓È5
 10
4332.012
 20
-11189.04575
 11
4332.012
 21
-11338.25375
  0
LINE
  8
┌▓È5
 10
4372.012
 20
-11219.04575
 11
4672.012
 21
-11219.04575
  0
LINE
  8
┌▓È5
 10
4372.012
 20
-11219.04575
 11
4672.012
 21
-11369.04575
  0
LINE
  8
┌▓È5
 10
4372.012
 20
-11369.04575
 11
4372.012
 21
-10435.7125
  0
LINE
  8
┌▓È5
 10
4352.012
 20
-11369.04575
 11
4352.012
 21
-10435.7125
  0
LINE
  8
┌▓È5
  6
DASHED
 10
5671.44675
 20
-3139.90075
 11
4704.78
 21
-2173.234
  0
ARC
  8
┌▓È5
  6
DASHED
 10
5671.444746
 20
-3139.900887
 40
1666.666667
 50
225.0
 51
270.0
  0
LINE
  8
┌▓È5
  6
DASHED
 10
4704.78
 20
-2173.234
 11
3957.2325
 21
-2173.234
  0
LINE
  8
┌▓È5
  6
DASHED
 10
4492.935
 20
-4318.41225
 11
3485.8275
 21
-3311.30475
  0
ARC
  8
┌▓È5
  6
DASHED
 10
3957.231183
 20
-2839.900887
 40
666.666667
 50
90.0
 51
225.0
  0
LINE
  8
┌▓È5
  6
DASHED
 10
20499.42325
 20
-4806.56725
 11
5671.44575
 21
-4806.56725
  0
ARC
  8
┌▓È5
  6
DASHED
 10
20499.422142
 20
-3139.900887
 40
1666.666667
 50
-90.0
 51
0.0
  0
LINE
  8
┌▓È5
  6
DASHED
 10
22166.09
 20
-3139.90075
 11
22166.09
 21
-1473.234
  0
LINE
  8
┌▓È5
  6
DASHED
 10
22166.09
 20
-1473.234
 11
20499.42325
 21
-1473.234
  0
LINE
  8
┌▓È5
  6
DASHED
 10
5671.44675
 20
-3139.90075
 11
20499.42325
 21
-3139.90075
  0
LINE
  8
┌▓È5
  6
DASHED
 10
20499.42325
 20
-1473.234
 11
20499.42325
 21
-3139.90075
  0
LINE
  8
┌▓È5
  6
DASHED
 10
-5284.05925
 20
-1473.234
 11
-5284.05925
 21
-3139.90075
  0
LINE
  8
┌▓È5
  6
DOT
 10
-9950.726
 20
-1143.23375
 11
-5284.05925
 21
-1143.23375
  0
LINE
  8
┌▓È5
  6
DOT
 10
-9950.726
 20
-4106.567
 11
-5284.05925
 21
-4106.567
  0
LINE
  8
┌▓È5
  6
DOT
 10
-5284.05925
 20
-1143.23375
 11
-5284.05925
 21
-4106.567
  0
LINE
  8
┌▓È5
 10
-19950.726
 20
-10369.04575
 11
-16950.726
 21
-10369.04575
  0
LINE
  8
┌▓È5
 10
-19950.726
 20
-10435.7125
 11
-16950.726
 21
-10435.7125
  0
LINE
  8
┌▓È5
 10
-19867.39275
 20
-8502.37925
 11
-19867.39275
 21
-10369.04575
  0
LINE
  8
┌▓È5
 10
-17034.05925
 20
-8502.37925
 11
-17034.05925
 21
-10369.04575
  0
LINE
  8
┌▓È5
 10
-17034.05925
 20
-9435.7125
 11
-19867.39275
 21
-9435.7125
  0
LINE
  8
┌▓È5
 10
-17034.05925
 20
-9369.04575
 11
-19867.39275
 21
-9369.04575
  0
LINE
  8
┌▓È5
 10
-16950.726
 20
-8502.37925
 11
-16950.726
 21
-10435.7125
  0
LINE
  8
┌▓È5
 10
-19950.726
 20
-8502.37925
 11
-19950.726
 21
-10435.7125
  0
LINE
  8
┌▓È5
  6
DOT
 10
-11950.726
 20
-1143.23375
 11
-11950.726
 21
-4106.567
  0
LINE
  8
┌▓È5
  6
DOT
 10
-16617.39275
 20
-1143.23375
 11
-16617.39275
 21
-4106.567
  0
LINE
  8
┌▓È5
  6
DOT
 10
-11950.726
 20
-1143.23375
 11
-16617.39275
 21
-1143.23375
  0
LINE
  8
┌▓È5
  6
DOT
 10
-11950.726
 20
-4106.567
 11
-16617.39275
 21
-4106.567
  0
LINE
  8
┌▓È5
  6
DOT
 10
15832.7565
 20
-1143.23375
 11
15832.7565
 21
-4106.567
  0
LINE
  8
┌▓È5
  6
DOT
 10
15832.7565
 20
-1143.23375
 11
20499.42325
 21
-1143.23375
  0
LINE
  8
┌▓È5
  6
DOT
 10
15832.7565
 20
-4106.567
 11
20499.42325
 21
-4106.567
  0
LINE
  8
┌▓È5
  6
DOT
 10
20499.42325
 20
-1143.23375
 11
20499.42325
 21
-4106.567
  0
LINE
  8
┌▓È5
  6
DOT
 10
13832.7565
 20
-1143.23375
 11
13832.7565
 21
-4106.567
  0
LINE
  8
┌▓È5
  6
DOT
 10
9166.08975
 20
-1143.23375
 11
9166.08975
 21
-4106.567
  0
LINE
  8
┌▓È5
  6
DOT
 10
13832.7565
 20
-1143.23375
 11
9166.08975
 21
-1143.23375
  0
LINE
  8
┌▓È5
  6
DOT
 10
13832.7565
 20
-4106.567
 11
9166.08975
 21
-4106.567
  0
LINE
  8
┌▓È5
 10
-21826.25
 20
-8502.37925
 11
-21826.25
 21
-11369.04575
  0
LINE
  8
┌▓È5
 10
-20317.3925
 20
-8502.37925
 11
-20317.3925
 21
-11369.04575
  0
LINE
  8
┌▓È5
 10
-4750.72575
 20
-8502.37925
 11
-4750.72575
 21
-11369.04575
  0
LINE
  8
┌▓È5
  6
DOT
 10
-9950.726
 20
-1143.23375
 11
-9950.726
 21
-3139.90075
  0
LINE
  8
┌▓È5
 10
6590.367
 20
11423.57
 11
6590.367
 21
8590.23675
  0
LINE
  8
┌▓È5
 10
6507.03375
 20
8506.9035
 11
12507.03375
 21
8506.9035
  0
LINE
  8
┌▓È5
 10
12423.7005
 20
11423.57
 11
12423.7005
 21
8590.23675
  0
LINE
  8
┌▓È5
 10
12507.03375
 20
8506.9035
 11
12507.03375
 21
11506.9035
  0
LINE
  8
┌▓È5
 10
6507.03375
 20
11506.9035
 11
12507.03375
 21
11506.9035
  0
LINE
  8
┌▓È5
 10
6507.03375
 20
11506.9035
 11
6507.03375
 21
8506.9035
  0
LINE
  8
┌▓È5
 10
7590.36725
 20
8590.23675
 11
6590.367
 21
8590.23675
  0
LINE
  8
┌▓È5
 10
7590.36725
 20
11506.9035
 11
7590.36725
 21
8506.9035
  0
LINE
  8
┌▓È5
 10
7673.7005
 20
8590.23675
 11
7673.7005
 21
11423.57
  0
LINE
  8
┌▓È5
 10
7590.36725
 20
11423.57
 11
6590.367
 21
11423.57
  0
LINE
  8
┌▓È5
 10
7590.36725
 20
10041.9035
 11
6590.367
 21
10041.9035
  0
LINE
  8
┌▓È5
 10
7590.36725
 20
9971.9035
 11
6590.367
 21
9971.9035
  0
LINE
  8
┌▓È5
 10
12423.7005
 20
8590.23675
 11
11423.70025
 21
8590.23675
  0
LINE
  8
┌▓È5
 10
11423.70025
 20
11506.9035
 11
11423.70025
 21
8506.9035
  0
LINE
  8
┌▓È5
 10
11340.367
 20
8590.23675
 11
11340.367
 21
11423.57
  0
LINE
  8
┌▓È5
 10
12423.7005
 20
11423.57
 11
11423.70025
 21
11423.57
  0
LINE
  8
┌▓È5
 10
11340.367
 20
8590.23675
 11
7673.7005
 21
8590.23675
  0
LINE
  8
┌▓È5
 10
11340.367
 20
11423.57
 11
7673.7005
 21
11423.57
  0
POLYLINE
  8
┌▓È5
 66
     1
 70
     1
  0
VERTEX
  8
┌▓È5
 10
23670.50425
 20
11506.9035
  0
VERTEX
  8
┌▓È5
 10
22670.50425
 20
11506.9035
  0
VERTEX
  8
┌▓È5
 10
22670.50425
 20
8506.9035
  0
VERTEX
  8
┌▓È5
 10
23670.50425
 20
8506.9035
  0
SEQEND
  0
LINE
  8
┌▓È5
 10
23670.50425
 20
11423.57025
 11
22670.50425
 21
11423.57025
  0
LINE
  8
┌▓È5
 10
22670.50425
 20
8590.23675
 11
23670.50425
 21
8590.23675
  0
LINE
  8
┌▓È5
 10
23657.171
 20
11423.57025
 11
23657.171
 21
8590.23675
  0
POLYLINE
  8
┌▓È5
 66
     1
 70
     1
  0
VERTEX
  8
┌▓È5
 10
19087.67175
 20
11506.9035
  0
VERTEX
  8
┌▓È5
 10
18087.67175
 20
11506.9035
  0
VERTEX
  8
┌▓È5
 10
18087.67175
 20
8506.9035
  0
VERTEX
  8
┌▓È5
 10
19087.67175
 20
8506.9035
  0
SEQEND
  0
LINE
  8
┌▓È5
 10
19087.67175
 20
11423.57025
 11
18087.67175
 21
11423.57025
  0
LINE
  8
┌▓È5
 10
18087.67175
 20
8590.23675
 11
19087.67175
 21
8590.23675
  0
LINE
  8
┌▓È5
 10
19074.3385
 20
11423.57025
 11
19074.3385
 21
8590.23675
  0
LINE
  8
┌▓È5
 10
19074.3385
 20
10041.9035
 11
18087.67175
 21
10041.9035
  0
LINE
  8
┌▓È5
 10
19074.3385
 20
9971.9035
 11
18087.67175
 21
9971.9035
  0
LINE
  8
┌▓È5
 10
12423.7005
 20
10455.79225
 11
11423.70025
 21
10454.1255
  0
LINE
  8
┌▓È5
 10
12423.7005
 20
10525.79225
 11
11423.70025
 21
10524.1255
  0
LINE
  8
┌▓È5
 10
12423.7005
 20
9558.0145
 11
11423.70025
 21
9558.0145
  0
LINE
  8
┌▓È5
 10
12423.7005
 20
9488.0145
 11
11423.70025
 21
9488.0145
  0
LINE
  8
┌▓È5
 10
23657.123
 20
10542.871
 11
22670.45625
 21
10542.871
  0
LINE
  8
┌▓È5
 10
23657.123
 20
10472.871
 11
22670.45625
 21
10472.871
  0
LINE
  8
┌▓È5
 10
23657.171
 20
9558.0145
 11
22670.50425
 21
9558.0145
  0
LINE
  8
┌▓È5
 10
23657.171
 20
9488.0145
 11
22670.50425
 21
9488.0145
  0
LINE
  8
┌▓È6
 10
5916.08975
 20
-4656.56725
 11
8749.42325
 21
-4656.56725
  0
TEXT
  7
TextStyle03
  8
òÂÄÜ
 10
18300.0
 20
-16625.0
  1
É}û╩û╝
 40
250.0
 72
     5
 11
19110.0
 21
-16625.0
  0
TEXT
  7
TextStyle03
  8
òÂÄÜ
 10
25050.0
 20
-17825.0
  1
çé
 40
250.0
 72
     5
 11
25300.0
 21
-17825.0
  0
TEXT
  7
TextStyle03
  8
òÂÄÜ
 10
25050.0
 20
-16625.0
  1
ÅkÄ┌
 40
250.0
 72
     5
 11
25580.0
 21
-16625.0
  0
TEXT
  7
TextStyle03
  8
òÂÄÜ
 10
25995.0
 20
-17175.0
  1
1/30
 40
300.0
 72
     5
 11
26685.0
 21
-17175.0
  0
TEXT
  7
TextStyle03
  8
òÂÄÜ
 10
24480.0
 20
817.5
  1
érüüéPü^éRéO
 40
400.0
 72
     5
 11
27280.0
 21
817.5
  0
TEXT
  7
TextStyle03
  8
òÂÄÜ
 10
-23317.5
 20
817.5
  1
Ä¾òtâJâEâôâ^ü[ç@
 40
400.0
 72
     5
 11
-19557.5
 21
817.5
  0
TEXT
  7
TextStyle03
  8
òÂÄÜ
 10
-1527.5
 20
18025.0
  1
érüüéPü^éRéO
 40
400.0
 72
     5
 11
1272.5
 21
18025.0
  0
TEXT
  7
TextStyle03
  8
òÂÄÜ
 10
-20651.25
 20
10742.5
  1
(Ä¾òtæñ)
 40
300.0
 72
     5
 11
-19320.0
 21
10742.5
  0
TEXT
  7
TextStyle03
  8
òÂÄÜ
 10
-5036.25
 20
8857.5
  1
(ÉfÄ@Ä║æñ)
 40
300.0
 72
     5
 11
-3367.5
 21
8857.5
  0
TEXT
  7
TextStyle03
  8
òÂÄÜ
 10
-10111.25
 20
8785.0
  1
(Ä¾òtæñ)
 40
300.0
 72
     5
 11
-8780.0
 21
8785.0
  0
TEXT
  7
TextStyle03
  8
òÂÄÜ
 10
-8621.25
 20
9395.0
  1
Â┘├Åoòö
 40
300.0
 72
     5
 11
-7477.5
 21
9395.0
  0
TEXT
  7
TextStyle03
  8
òÂÄÜ
 10
-8838.75
 20
8192.5
  1
Â┘├òÈïpòö
 40
300.0
 72
     5
 11
-7357.5
 21
8192.5
  0
TEXT
  7
TextStyle03
  8
òÂÄÜ
 10
-8415.0
 20
7107.5
  1
û‗ÆI
 40
300.0
 72
     5
 11
-7777.5
 21
7107.5
  0
TEXT
  7
TextStyle03
  8
òÂÄÜ
 10
-8415.0
 20
6122.5
  1
û‗ÆI
 40
300.0
 72
     5
 11
-7777.5
 21
6122.5
  0
TEXT
  7
TextStyle03
  8
òÂÄÜ
 10
-14196.25
 20
10742.5
  1
(ÉfÄ@Ä║æñ)
 40
300.0
 72
     5
 11
-12527.5
 21
10742.5
  0
TEXT
  7
TextStyle03
  8
òÂÄÜ
 10
-15748.75
 20
9395.0
  1
Â┘├Åoòö
 40
300.0
 72
     5
 11
-14605.0
 21
9395.0
  0
TEXT
  7
TextStyle03
  8
òÂÄÜ
 10
-15966.25
 20
8192.5
  1
Â┘├òÈïpòö
 40
300.0
 72
     5
 11
-14485.0
 21
8192.5
  0
TEXT
  7
TextStyle03
  8
òÂÄÜ
 10
-15542.5
 20
7107.5
  1
û‗ÆI
 40
300.0
 72
     5
 11
-14905.0
 21
7107.5
  0
TEXT
  7
TextStyle03
  8
òÂÄÜ
 10
-15542.5
 20
6122.5
  1
û‗ÆI
 40
300.0
 72
     5
 11
-14905.0
 21
6122.5
  0
TEXT
  7
TextStyle03
  8
òÂÄÜ
 10
-22531.25
 20
9470.0
  1
Â┘├Åoòö
 40
300.0
 72
     5
 11
-21387.5
 21
9470.0
  0
TEXT
  7
TextStyle03
  8
òÂÄÜ
 10
-22748.75
 20
8267.5
  1
Â┘├òÈïpòö
 40
300.0
 72
     5
 11
-21267.5
 21
8267.5
  0
TEXT
  7
TextStyle03
  8
òÂÄÜ
 10
-22325.0
 20
7182.5
  1
û‗ÆI
 40
300.0
 72
     5
 11
-21687.5
 21
7182.5
  0
TEXT
  7
TextStyle03
  8
òÂÄÜ
 10
-22325.0
 20
6197.5
  1
û‗ÆI
 40
300.0
 72
     5
 11
-21687.5
 21
6197.5
  0
TEXT
  7
TextStyle03
  8
òÂÄÜ
 10
-23317.5
 20
18025.0
  1
æÊìçéóÄ║ñÉfÄ@Ä║  âJâïâeânâbâ`
 40
400.0
 72
     5
 11
-16437.5
 21
18025.0
  0
TEXT
  7
TextStyle03
  8
òÂÄÜ
 10
-13877.5
 20
12282.5
  1
W=
 40
300.0
 72
     5
 11
-13558.75
 21
12282.5
  0
TEXT
  7
TextStyle03
  8
òÂÄÜ
 10
-13877.5
 20
11922.5
  1
H= 800
 40
300.0
 72
     5
 11
-12883.75
 21
11922.5
  0
TEXT
  7
TextStyle03
  8
òÂÄÜ
 10
-13877.5
 20
11562.5
  1
h= 600
 40
300.0
 72
     5
 11
-12883.75
 21
11562.5
  0
TEXT
  7
TextStyle03
  8
òÂÄÜ
 10
-17660.0
 20
16065.0
  1
ÉfÄ@Ä║æñ
 40
300.0
 72
     5
 11
-16347.5
 21
16065.0
  0
TEXT
  7
TextStyle03
  8
òÂÄÜ
 10
-17485.0
 20
13462.5
  1
Ä¾òtæñ
 40
300.0
 72
     5
 11
-16510.0
 21
13462.5
  0
TEXT
  7
TextStyle03
  8
òÂÄÜ
 10
-6920.0
 20
3907.5
  1
é`Æfû╩
 40
300.0
 72
     5
 11
-5945.0
 21
3907.5
  0
TEXT
  7
TextStyle03
  8
òÂÄÜ
 10
12217.5
 20
-13697.5
  1
Â│¦└░Ä¾òtÑë´îvòöò¬
 40
300.0
 72
     5
 11
15217.5
 21
-13697.5
  0
TEXT
  7
TextStyle03
  8
òÂÄÜ
 10
15435.0
 20
-9177.5
  1
(Â│¦└░èOæñ)
 40
300.0
 72
     5
 11
17272.5
 21
-9177.5
  0
INSERT
  2
*GRP_0014
  8
òÂÄÜ
 10
0.0
 20
0.0
  0
TEXT
  7
TextStyle03
  8
òÂÄÜ
 10
14756.875
 20
-8370.0
  1
R=20
 40
300.0
 72
     5
 11
15413.125
 21
-8370.0
  0
INSERT
  2
*GRP_0015
  8
òÂÄÜ
 10
0.0
 20
0.0
  0
TEXT
  7
TextStyle03
  8
òÂÄÜ
 10
14625.0
 20
-9777.5
  1
ìÿòÃüF
 40
300.0
 72
     5
 11
15600.0
 21
-9777.5
  0
TEXT
  7
TextStyle03
  8
òÂÄÜ
 10
14625.0
 20
-10115.0
  1
╦╩Ì╠█░Ï¦©Ìt=15
 40
300.0
 72
     5
 11
16968.75
 21
-10115.0
  0
INSERT
  2
*GRP_0016
  8
òÂÄÜ
 10
0.0
 20
0.0
  0
TEXT
  7
TextStyle03
  8
òÂÄÜ
 10
14465.0
 20
-11225.0
  1
90ü~45üù450
 40
300.0
 72
     5
 11
16302.5
 21
-11225.0
  0
INSERT
  2
*GRP_0017
  8
òÂÄÜ
 10
0.0
 20
0.0
  0
TEXT
  7
TextStyle03
  8
òÂÄÜ
 10
11951.25
 20
-8340.0
  1
R=6
 40
300.0
 72
     5
 11
12438.75
 21
-8340.0
  0
TEXT
  7
TextStyle03
  8
òÂÄÜ
 10
9235.0
 20
-7915.0
  1
Â│¦└░üF└ËÅWÉ¼ìÌOCCL
 40
300.0
 72
     5
 11
12422.5
 21
-7915.0
  0
TEXT
  7
TextStyle03
  8
òÂÄÜ
 10
11710.0
 20
-9795.0
  1
ìÿòÃüF
 40
300.0
 72
     5
 11
12685.0
 21
-9795.0
  0
TEXT
  7
TextStyle03
  8
òÂÄÜ
 10
10341.25
 20
-10132.5
  1
╝┼═ÌãÈt=6 OSCL
 40
300.0
 72
     5
 11
12685.0
 21
-10132.5
  0
TEXT
  7
TextStyle03
  8
òÂÄÜ
 10
10845.0
 20
-10945.0
  1
┐╠─ïðûÏH=60
 40
300.0
 72
     5
 11
12682.5
 21
-10945.0
  0
INSERT
  2
*GRP_0018
  8
òÂÄÜ
 10
0.0
 20
0.0
  0
INSERT
  2
*GRP_0019
  8
òÂÄÜ
 10
0.0
 20
0.0
  0
INSERT
  2
*GRP_0020
  8
òÂÄÜ
 10
0.0
 20
0.0
  0
TEXT
  7
TextStyle03
  8
òÂÄÜ
 10
9912.5
 20
-9132.5
  1
(Â│¦└░ôÓòö)
 40
300.0
 72
     5
 11
11750.0
 21
-9132.5
  0
TEXT
  7
TextStyle03
  8
òÂÄÜ
 10
2793.75
 20
-13697.5
  1
Â│¦└░ÅñòiÆIòöò¬
 40
300.0
 72
     5
 11
5287.5
 21
-13697.5
  0
INSERT
  2
*GRP_0021
  8
òÂÄÜ
 10
0.0
 20
0.0
  0
TEXT
  7
TextStyle03
  8
òÂÄÜ
 10
2453.75
 20
-8340.0
  1
R=6
 40
300.0
 72
     5
 11
2941.25
 21
-8340.0
  0
TEXT
  7
TextStyle03
  8
òÂÄÜ
 10
-262.5
 20
-7915.0
  1
Â│¦└░üF└ËÅWÉ¼ìÌOCCL
 40
300.0
 72
     5
 11
2925.0
 21
-7915.0
  0
TEXT
  7
TextStyle03
  8
òÂÄÜ
 10
1402.5
 20
-9200.0
  1
(Â│¦└░ôÓòö)
 40
300.0
 72
     5
 11
3240.0
 21
-9200.0
  0
INSERT
  2
*GRP_0022
  8
òÂÄÜ
 10
0.0
 20
0.0
  0
TEXT
  7
TextStyle03
  8
òÂÄÜ
 10
5259.375
 20
-8370.0
  1
R=20
 40
300.0
 72
     5
 11
5915.625
 21
-8370.0
  0
INSERT
  2
*GRP_0023
  8
òÂÄÜ
 10
0.0
 20
0.0
  0
TEXT
  7
TextStyle03
  8
òÂÄÜ
 10
5090.0
 20
-10530.0
  1
ìÿòÃüF
 40
300.0
 72
     5
 11
6065.0
 21
-10530.0
  0
TEXT
  7
TextStyle03
  8
òÂÄÜ
 10
5090.0
 20
-10867.5
  1
╦╩Ì╠█░Ï¦©Ìt=15
 40
300.0
 72
     5
 11
7433.75
 21
-10867.5
  0
TEXT
  7
TextStyle03
  8
òÂÄÜ
 10
4955.0
 20
-9115.0
  1
(Â│¦└░èOæñ)
 40
300.0
 72
     5
 11
6792.5
 21
-9115.0
  0
INSERT
  2
*GRP_0024
  8
òÂÄÜ
 10
0.0
 20
0.0
  0
TEXT
  7
TextStyle03
  8
òÂÄÜ
 10
-6420.0
 20
-7970.0
  1
ìÿòÃüF
 40
300.0
 72
     5
 11
-5445.0
 21
-7970.0
  0
TEXT
  7
TextStyle03
  8
òÂÄÜ
 10
-6420.0
 20
-8307.5
  1
╦╩Ì╠█░Ï¦©Ìt=15
 40
300.0
 72
     5
 11
-4076.25
 21
-8307.5
  0
INSERT
  2
*GRP_0036
  8
òÂÄÜ
 10
0.0
 20
0.0
  0
TEXT
  7
TextStyle03
  8
òÂÄÜ
 10
-14933.75
 20
-5412.5
  1
(ë´îv)
 40
300.0
 72
     5
 11
-13940.0
 21
-5412.5
  0
TEXT
  7
TextStyle03
  8
òÂÄÜ
 10
-27100.0
 20
18025.0
  1
élü|éP
 40
400.0
 72
     5
 11
-25740.0
 21
18025.0
  0
TEXT
  7
TextStyle03
  8
òÂÄÜ
 10
-27100.0
 20
817.5
  1
élü|éQ
 40
400.0
 72
     5
 11
-25740.0
 21
817.5
  0
TEXT
  7
TextStyle03
  8
òÂÄÜ
 10
19715.0
 20
-17125.0
  1
ëãï´Å┌ìÎÉ}üiéUüj
 40
400.0
 72
     5
 11
23475.0
 21
-17125.0
  0
TEXT
  7
TextStyle03
  8
òÂÄÜ
 10
25665.0
 20
-18525.0
  1
éOéSéR
 40
400.0
 72
     5
 11
27025.0
 21
-18525.0
  0
TEXT
  7
TextStyle03
  8
òÂÄÜ
 10
-14085.0
 20
15392.5
  1
é`
 40
300.0
 72
     5
 11
-13785.0
 21
15392.5
  0
TEXT
  7
TextStyle03
  8
òÂÄÜ
 10
-14012.5
 20
12745.0
  1
é`
 40
300.0
 72
     5
 11
-13712.5
 21
12745.0
  0
TEXT
  7
TextStyle03
  8
òÂÄÜ
 10
-8503.75
 20
-5330.0
  1
(Ä¾òt)
 40
300.0
 72
     5
 11
-7510.0
 21
-5330.0
  0
TEXT
  7
TextStyle03
  8
òÂÄÜ
 10
10848.75
 20
-5412.5
  1
(ë´îv)
 40
300.0
 72
     5
 11
11842.5
 21
-5412.5
  0
TEXT
  7
TextStyle03
  8
òÂÄÜ
 10
17278.75
 20
-5330.0
  1
(Ä¾òt)
 40
300.0
 72
     5
 11
18272.5
 21
-5330.0
  0
TEXT
  7
TextStyle03
  8
òÂÄÜ
 10
-9642.5
 20
-1807.5
  1
è¸éP
 40
300.0
 72
     5
 11
-9005.0
 21
-1807.5
  0
INSERT
  2
*GRP_0066
  8
òÂÄÜ
 10
0.0
 20
0.0
  0
TEXT
  7
TextStyle03
  8
òÂÄÜ
 10
-22755.0
 20
-5152.5
  1
ìÿòÃê╩Æu
 40
300.0
 72
     5
 11
-21442.5
 21
-5152.5
  0
TEXT
  7
TextStyle03
  8
òÂÄÜ
 10
-3410.0
 20
-10750.0
  1
é`
 40
300.0
 72
     5
 11
-3110.0
 21
-10750.0
  0
TEXT
  7
TextStyle03
  8
òÂÄÜ
 10
-19838.75
 20
-9342.5
  1
(ÅñòiÆI)
 40
300.0
 72
     5
 11
-18507.5
 21
-9342.5
  0
TEXT
  7
TextStyle03
  8
òÂÄÜ
 10
-19838.75
 20
-10327.5
  1
(ÅñòiÆI)
 40
300.0
 72
     5
 11
-18507.5
 21
-10327.5
  0
INSERT
  2
*GRP_0067
  8
òÂÄÜ
 10
0.0
 20
0.0
  0
TEXT
  7
TextStyle03
  8
òÂÄÜ
 10
-21615.0
 20
-7970.0
  1
Â│¦└░üF└ËÅWÉ¼ìÌOCCL
 40
300.0
 72
     5
 11
-18427.5
 21
-7970.0
  0
INSERT
  2
*GRP_0069
  8
òÂÄÜ
 10
0.0
 20
0.0
  0
TEXT
  7
TextStyle03
  8
òÂÄÜ
 10
-9045.0
 20
-11022.5
  1
ïðûÏü@H=60
 40
300.0
 72
     5
 11
-7376.25
 21
-11022.5
  0
TEXT
  7
TextStyle03
  8
òÂÄÜ
 10
-16485.0
 20
-1857.5
  1
è¸éQ
 40
300.0
 72
     5
 11
-15847.5
 21
-1857.5
  0
TEXT
  7
TextStyle03
  8
òÂÄÜ
 10
9297.5
 20
-1857.5
  1
è¸éQ
 40
300.0
 72
     5
 11
9935.0
 21
-1857.5
  0
INSERT
  2
*GRP_0070
  8
òÂÄÜ
 10
0.0
 20
0.0
  0
TEXT
  7
TextStyle03
  8
òÂÄÜ
 10
3415.0
 20
-5152.5
  1
ìÿòÃê╩Æu
 40
300.0
 72
     5
 11
4727.5
 21
-5152.5
  0
TEXT
  7
TextStyle03
  8
òÂÄÜ
 10
16140.0
 20
-1807.5
  1
è¸éP
 40
300.0
 72
     5
 11
16777.5
 21
-1807.5
  0
TEXT
  7
TextStyle03
  8
òÂÄÜ
 10
12081.25
 20
-6057.5
  1
é`-é`Æfû╩
 40
300.0
 72
     5
 11
13562.5
 21
-6057.5
  0
TEXT
  7
TextStyle03
  8
òÂÄÜ
 10
-22560.0
 20
-10760.0
  1
é`
 40
300.0
 72
     5
 11
-22260.0
 21
-10760.0
  0
TEXT
  7
TextStyle03
  8
òÂÄÜ
 10
6703.75
 20
-5402.5
  1
(ÅñòiÆI)
 40
300.0
 72
     5
 11
8035.0
 21
-5402.5
  0
TEXT
  7
TextStyle03
  8
òÂÄÜ
 10
-19058.75
 20
-5382.5
  1
(ÅñòiÆI)
 40
300.0
 72
     5
 11
-17727.5
 21
-5382.5
  0
TEXT
  7
TextStyle03
  8
òÂÄÜ
 10
24480.0
 20
18025.0
  1
érüüéPü^éRéO
 40
400.0
 72
     5
 11
27280.0
 21
18025.0
  0
TEXT
  7
TextStyle03
  8
òÂÄÜ
 10
2240.0
 20
18025.0
  1
ébü|éP
 40
400.0
 72
     5
 11
3600.0
 21
18025.0
  0
TEXT
  7
TextStyle03
  8
òÂÄÜ
 10
6022.5
 20
18025.0
  1
âJâEâôâZâèâôâOÄ║
 40
400.0
 72
     5
 11
9782.5
 21
18025.0
  0
INSERT
  2
*GRP_0096
  8
òÂÄÜ
 10
0.0
 20
0.0
  0
TEXT
  7
TextStyle03
  8
òÂÄÜ
 10
8446.875
 20
8960.0
  1
╝¼░Â¢├¦é╔éµéÞ
 40
300.0
 72
     5
 11
10603.125
 21
8960.0
  0
TEXT
  7
TextStyle03
  8
òÂÄÜ
 10
8868.75
 20
8622.5
  1
Éíû@Æ▓É«
 40
300.0
 72
     5
 11
10181.25
 21
8622.5
  0
INSERT
  2
*GRP_0115
  8
òÂÄÜ
 10
0.0
 20
0.0
  0
TEXT
  7
TextStyle03
  8
òÂÄÜ
 10
20787.5
 20
11652.5
  1
╬▀Ïìçö┬ ▒4
 40
300.0
 72
     5
 11
22456.25
 21
11652.5
  0
TEXT
  7
TextStyle03
  8
òÂÄÜ
 10
-26425.0
 20
17187.5
  1
üªî®éªè|é®éÞòöé═â|âèâGâXâeâïìçö┬éãéÀéÚüB
 40
300.0
 72
     5
 11
-19712.5
 21
17187.5
  0
TEXT
  7
TextStyle03
  8
òÂÄÜ
 10
10827.5
 20
12742.5
  1
ÆIüF╬▀Ïìçö┬╠Î»╝¡
 40
300.0
 72
     5
 11
13508.75
 21
12742.5
  0
TEXT
  7
TextStyle03
  8
òÂÄÜ
 10
10827.5
 20
12405.0
  1
ü@ü@Ä¾ïÓò¿ ¢┴░┘PL 3ü~30
 40
300.0
 72
     5
 11
14690.0
 21
12405.0
  0
LINE
  8
Æ╩éÞÉc
 10
-20822.09725
 20
14948.57
 11
-4696.1835
 21
14948.57
  0
LINE
  8
Æ╩éÞÉc
 10
-19420.4305
 20
14375.6035
 11
-19420.4305
 21
15644.191
  0
LINE
  8
Æ╩éÞÉc
 10
-5172.74925
 20
14948.57
 11
-5172.74925
 21
14481.7655
  0
LINE
  8
Æ╩éÞÉc
 10
-4696.1835
 20
15425.136
 11
-5172.74925
 21
14948.57
  0
LINE
  8
Æ╩éÞÉc
 10
-15170.4305
 20
17204.00175
 11
-15170.4305
 21
12224.1175
  0
LINE
  8
Æ╩éÞÉc
 10
-5891.52325
 20
12762.04375
 11
-5891.52325
 21
10506.9035
  0
LINE
  8
Æ╩éÞÉc
 10
7673.7005
 20
11423.57
 11
11340.367
 21
8590.23675
  0
LINE
  8
Æ╩éÞÉc
 10
11340.367
 20
11423.57
 11
7673.7005
 21
8590.23675
  0
LINE
  8
┌▓È10
 10
-27650.0
 20
18775.0
 11
-27650.0
 21
-15643.565
  0
LINE
  8
┌▓È10
  6
CONTINUOUS
 10
-27650.0
 20
18775.0
 11
27700.0
 21
18775.0
  0
LINE
  8
┌▓È10
  6
CONTINUOUS
 10
27700.0
 20
-15643.565
 11
-27650.0
 21
-15643.565
  0
LINE
  8
┌▓È10
  6
CONTINUOUS
 10
27700.0
 20
-15643.565
 11
27700.0
 21
18775.0
  0
LINE
  8
┌▓È10
 10
-27650.0
 20
1565.7175
 11
27700.0
 21
1565.7175
  0
LINE
  8
┌▓È10
 10
-27650.0
 20
17775.0
 11
27700.0
 21
17775.0
  0
LINE
  8
┌▓È10
 10
-27650.0
 20
565.7175
 11
27700.0
 21
565.7175
  0
LINE
  8
┌▓È10
 10
-24650.0
 20
18775.0
 11
-24650.0
 21
17775.0
  0
LINE
  8
┌▓È10
 10
-24650.0
 20
1565.7175
 11
-24650.0
 21
565.7175
  0
LINE
  8
┌▓È10
 10
-24650.0
 20
1565.7175
 11
-24650.0
 21
565.7175
  0
LINE
  8
┌▓È10
 10
1691.66675
 20
18775.0
 11
1691.66675
 21
1565.7175
  0
LINE
  8
┌▓È10
 10
-19087.09725
 20
14798.57
 11
-19244.12475
 21
14798.57
  0
LINE
  8
┌▓È10
 10
-20645.79125
 20
12281.9035
 11
-19244.12475
 21
14798.57
  0
LINE
  8
┌▓È10
 10
-19420.4305
 20
15098.57
 11
-20822.09725
 21
12581.9035
  0
LINE
  8
┌▓È10
 10
-19087.09725
 20
15098.57
 11
-19420.4305
 21
15098.57
  0
LINE
  8
┌▓È10
 10
-14420.4305
 20
15098.57
 11
-15920.4305
 21
15098.57
  0
LINE
  8
┌▓È10
 10
-15920.4305
 20
14798.57
 11
-15920.4305
 21
13581.9035
  0
LINE
  8
┌▓È10
 10
-14420.4305
 20
13581.9035
 11
-15920.4305
 21
13581.9035
  0
LINE
  8
┌▓È10
  6
DOT
 10
-14420.4305
 20
14798.57
 11
-14420.4305
 21
13631.9035
  0
LINE
  8
┌▓È10
 10
-14420.4305
 20
14798.57
 11
-14420.4305
 21
13581.9035
  0
LINE
  8
┌▓È10
 10
-12253.76375
 20
15098.57
 11
-5234.88125
 21
15098.57
  0
LINE
  8
┌▓È10
 10
-12253.76375
 20
14798.57
 11
-5110.618
 21
14798.57
  0
LINE
  8
┌▓È10
  6
CONTINUOUS
 10
-4979.98375
 20
14929.205
 11
-5110.618
 21
14798.57
  0
LINE
  8
┌▓È10
  6
CONTINUOUS
 10
-5192.11475
 20
15141.33675
 11
-5234.88125
 21
15098.57
  0
LINE
  8
┌▓È10
 10
4691.66675
 20
18775.0
 11
4691.66675
 21
17775.0
  0
LINE
  8
┌▓È13
  6
DASHED
 10
-7374.85675
 20
6756.9035
 11
-7374.85675
 21
5923.57
  0
LINE
  8
┌▓È13
  6
DASHED
 10
-7374.85675
 20
6840.23675
 11
-7374.85675
 21
7756.9035
  0
LINE
  8
┌▓È13
  6
DASHED
 10
-5708.19
 20
8840.237
 11
-5708.19
 21
10423.57025
  0
LINE
  8
┌▓È13
  6
DASHED
 10
-7374.85675
 20
8840.237
 11
-7374.85675
 21
10423.57025
  0
LINE
  8
┌▓È13
  6
DASHED
 10
-7374.85675
 20
8770.237
 11
-7374.85675
 21
7840.23675
  0
LINE
  8
┌▓È13
  6
DASHED
 10
-5708.19
 20
7840.23675
 11
-5708.19
 21
8770.237
  0
LINE
  8
┌▓È13
  6
DOT
 10
-16003.76375
 20
15131.9035
 11
-19003.76375
 21
15131.9035
  0
LINE
  8
┌▓È13
  6
DOT
 10
-16003.76375
 20
14765.23675
 11
-19003.76375
 21
14765.23675
  0
INSERT
  2
*DIM_0012
  8
┌▓È13
 10
0.0
 20
0.0
  0
INSERT
  2
*DIM_0013
  8
┌▓È13
 10
0.0
 20
0.0
  0
LINE
  8
┌▓È13
  6
DASHED
 10
12718.195
 20
-11369.04575
 11
12718.195
 21
-8482.37925
  0
LINE
  8
┌▓È13
  6
DASHED
 10
4722.012
 20
-10369.04575
 11
4722.012
 21
-8502.37925
  0
LINE
  8
┌▓È13
  6
DASHED
 10
-14420.43075
 20
5840.23675
 11
-14420.43075
 21
7756.9035
  0
LINE
  8
┌▓È13
  6
DASHED
 10
-14337.0975
 20
7756.9035
 11
-14337.0975
 21
5923.57
  0
LINE
  8
┌▓È13
  6
DASHED
 10
-12336.44375
 20
7756.9035
 11
-12337.06875
 21
5923.57
  0
LINE
  8
┌▓È13
  6
DASHED
 10
-12253.764
 20
5840.23675
 11
-12253.1105
 21
7756.9035
  0
LINE
  8
┌▓È13
  6
DASHED
 10
-14337.0975
 20
6840.23675
 11
-12336.75625
 21
6840.23675
  0
LINE
  8
┌▓È13
  6
DASHED
 10
-14337.0975
 20
6756.9035
 11
-12336.78475
 21
6756.9035
  0
LINE
  8
┌▓È13
  6
DASHED
 10
-12253.764
 20
5840.23675
 11
-14420.43075
 21
5840.23675
  0
LINE
  8
┌▓È13
  6
DASHED
 10
-12253.764
 20
5923.57
 11
-14420.43075
 21
5923.57
  0
LINE
  8
┌▓È13
  6
DOT
 10
-5170.4305
 20
13631.9035
 11
-12253.76375
 21
13631.9035
  0
LINE
  8
┌▓È13
  6
DOT
 10
-5170.4305
 20
14798.57
 11
-5170.4305
 21
13631.9035
  0
LINE
  8
┌▓È13
 10
21999.42325
 20
-3323.234
 11
21032.75675
 21
-3323.234
  0
LINE
  8
┌▓È13
 10
21632.7565
 20
-2956.5675
 11
20666.09
 21
-2956.5675
  0
LINE
  8
┌▓È13
 10
21032.75675
 20
-3323.234
 11
21032.75675
 21
-4639.9005
  0
LINE
  8
┌▓È13
 10
20666.09
 20
-2956.5675
 11
20666.09
 21
-4273.23375
  0
LINE
  8
┌▓È13
  6
CONTINUOUS
 10
4323.89925
 20
-3253.708
 11
5343.425
 21
-4273.23375
  0
LINE
  8
┌▓È13
  6
CONTINUOUS
 10
3957.2325
 20
-3405.58625
 11
5191.54675
 21
-4639.9005
  0
LINE
  8
┌▓È13
  6
DASHED
 10
-3784.05925
 20
-3323.234
 11
-4750.72575
 21
-3323.234
  0
LINE
  8
┌▓È13
  6
DASHED
 10
-4150.726
 20
-2956.5675
 11
-5117.3925
 21
-2956.5675
  0
LINE
  8
┌▓È13
  6
DASHED
 10
-4750.72575
 20
-3323.234
 11
-4750.72575
 21
-4639.9005
  0
LINE
  8
┌▓È13
  6
DASHED
 10
-5117.3925
 20
-2956.5675
 11
-5117.3925
 21
-4273.23375
  0
LINE
  8
┌▓È13
  6
DASHED
 10
-21459.58325
 20
-3253.708
 11
-20440.0575
 21
-4273.23375
  0
LINE
  8
┌▓È13
  6
DASHED
 10
-21826.25
 20
-3405.58625
 11
-20591.93575
 21
-4639.9005
  0
LINE
  8
┌▓È13
  6
DASHED
 10
-21459.58325
 20
-3253.708
 11
-21459.58325
 21
-2339.90075
  0
LINE
  8
┌▓È13
  6
DASHED
 10
-21826.25
 20
-3405.58625
 11
-21826.25
 21
-2339.90075
  0
LINE
  8
┌▓È13
  6
DASHED
 10
-21459.58325
 20
-2339.90075
 11
-21826.25
 21
-2339.90075
  0
LINE
  8
┌▓È13
 10
4323.89925
 20
-3253.708
 11
4323.89925
 21
-2339.90075
  0
LINE
  8
┌▓È13
 10
4323.89925
 20
-2339.90075
 11
3957.2325
 21
-2339.90075
  0
LINE
  8
┌▓È13
 10
3957.2325
 20
-3405.58625
 11
3957.2325
 21
-2339.90075
  0
LINE
  8
┌▓È13
 10
21999.42325
 20
-3323.234
 11
21999.42325
 21
-1639.90075
  0
LINE
  8
┌▓È13
 10
21999.42325
 20
-1639.90075
 11
21632.7565
 21
-1639.90075
  0
LINE
  8
┌▓È13
 10
21632.7565
 20
-2956.5675
 11
21632.7565
 21
-1639.90075
  0
LINE
  8
┌▓È13
  6
DASHED
 10
-3784.05925
 20
-3323.234
 11
-3784.05925
 21
-1639.90075
  0
LINE
  8
┌▓È13
  6
DASHED
 10
-3784.05925
 20
-1639.90075
 11
-4150.726
 21
-1639.90075
  0
LINE
  8
┌▓È13
  6
DASHED
 10
-4150.726
 20
-2956.5675
 11
-4150.726
 21
-1639.90075
  0
LINE
  8
┌▓È13
  6
CONTINUOUS
 10
4007.2325
 20
-3384.87575
 11
5212.25725
 21
-4589.9005
  0
LINE
  8
┌▓È13
 10
20982.75675
 20
-4589.9005
 11
20982.75675
 21
-3273.234
  0
LINE
  8
┌▓È13
 10
20982.75675
 20
-3273.234
 11
21949.42325
 21
-3273.234
  0
LINE
  8
┌▓È13
 10
21949.42325
 20
-1654.043
 11
21652.7565
 21
-1654.043
  0
LINE
  8
┌▓È13
 10
21652.7565
 20
-1654.043
 11
21652.7565
 21
-2976.5675
  0
LINE
  8
┌▓È13
 10
21652.7565
 20
-2976.5675
 11
20686.09
 21
-2976.5675
  0
LINE
  8
┌▓È13
 10
20686.09
 20
-2976.5675
 11
20686.09
 21
-4293.23375
  0
LINE
  8
┌▓È13
  6
CONTINUOUS
 10
5335.1405
 20
-4293.23375
 11
4303.89925
 21
-3261.9925
  0
LINE
  8
┌▓È13
 10
4007.2325
 20
-2359.90075
 11
4303.89925
 21
-2359.90075
  0
LINE
  8
┌▓È13
 10
4303.89925
 20
-3261.9925
 11
4303.89925
 21
-2359.90075
  0
LINE
  8
┌▓È13
  6
DASHED
 10
-19950.726
 20
-3306.5675
 11
-16950.726
 21
-3306.5675
  0
LINE
  8
┌▓È13
  6
DASHED
 10
-19950.726
 20
-3356.5675
 11
-16950.726
 21
-3356.5675
  0
LINE
  8
┌▓È13
  6
CONTINUOUS
 10
20686.09
 20
-4293.23375
 11
9146.08975
 21
-4293.23375
  0
LINE
  8
┌▓È13
  6
CONTINUOUS
 10
20982.75675
 20
-4589.9005
 11
8852.70275
 21
-4589.9005
  0
LINE
  8
┌▓È13
  6
CONTINUOUS
 10
5343.425
 20
-4273.23375
 11
5499.42325
 21
-4273.23375
  0
LINE
  8
┌▓È13
  6
CONTINUOUS
 10
5335.1405
 20
-4293.23375
 11
5519.42325
 21
-4293.23375
  0
LINE
  8
┌▓È13
  6
CONTINUOUS
 10
20666.09
 20
-4273.23375
 11
15832.75675
 21
-4273.23375
  0
LINE
  8
┌▓È13
  6
CONTINUOUS
 10
9166.08975
 20
-4273.23375
 11
15499.4235
 21
-4273.23375
  0
LINE
  8
┌▓È13
  6
CONTINUOUS
 10
5212.25725
 20
-4589.9005
 11
5812.7565
 21
-4589.9005
  0
LINE
  8
┌▓È13
 10
4007.2325
 20
-3384.87575
 11
4007.2325
 21
-2339.90075
  0
LINE
  8
┌▓È13
 10
21949.42325
 20
-3273.234
 11
21949.42325
 21
-1639.90075
  0
LINE
  8
┌▓È13
 10
8852.7565
 20
-3206.5675
 11
9146.08975
 21
-3206.5675
  0
LINE
  8
┌▓È13
 10
5499.42325
 20
-3186.5675
 11
5832.7565
 21
-3186.5675
  0
LINE
  8
┌▓È13
 10
5519.42325
 20
-3206.5675
 11
5812.7565
 21
-3206.5675
  0
LINE
  8
┌▓È13
  6
CONTINUOUS
 10
8832.7565
 20
-3186.5675
 11
5832.7565
 21
-3186.5675
  0
LINE
  8
┌▓È13
  6
CONTINUOUS
 10
8852.7565
 20
-3306.5675
 11
5812.7565
 21
-3306.5675
  0
LINE
  8
┌▓È13
  6
CONTINUOUS
 10
8852.7565
 20
-3356.5675
 11
5812.7565
 21
-3356.5675
  0
LINE
  8
┌▓È13
  6
CONTINUOUS
 10
5812.7565
 20
-3206.5675
 11
9146.08975
 21
-3206.5675
  0
LINE
  8
┌▓È13
 10
9146.08975
 20
-4293.23375
 11
9146.08975
 21
-3206.5675
  0
LINE
  8
┌▓È13
 10
9166.08975
 20
-4273.23375
 11
9166.08975
 21
-3186.5675
  0
LINE
  8
┌▓È13
 10
8832.7565
 20
-3186.5675
 11
9166.08975
 21
-3186.5675
  0
LINE
  8
┌▓È13
 10
5499.42325
 20
-4273.23375
 11
5499.42325
 21
-3186.5675
  0
LINE
  8
┌▓È13
 10
5519.42325
 20
-4293.23375
 11
5519.42325
 21
-3206.5675
  0
LINE
  8
┌▓È13
 10
8852.7565
 20
-3206.5675
 11
8852.7565
 21
-4656.56725
  0
LINE
  8
┌▓È13
  6
CONTINUOUS
 10
8749.42325
 20
-3356.5675
 11
8749.42325
 21
-4656.56725
  0
LINE
  8
┌▓È13
  6
CONTINUOUS
 10
21032.75675
 20
-4639.9005
 11
8852.7565
 21
-4639.9005
  0
LINE
  8
┌▓È13
  6
CONTINUOUS
 10
8749.42325
 20
-4656.56725
 11
8852.7565
 21
-4656.56725
  0
LINE
  8
┌▓È13
  6
CONTINUOUS
 10
5916.08975
 20
-3356.5675
 11
5916.08975
 21
-4656.56725
  0
LINE
  8
┌▓È13
 10
5812.7565
 20
-3206.5675
 11
5812.7565
 21
-4656.56725
  0
LINE
  8
┌▓È13
  6
CONTINUOUS
 10
5916.08975
 20
-4656.56725
 11
5812.7565
 21
-4656.56725
  0
LINE
  8
┌▓È13
  6
CONTINUOUS
 10
5191.54675
 20
-4639.9005
 11
5812.7565
 21
-4639.9005
  0
LINE
  8
┌▓È13
  6
DASHED
 10
-4750.72575
 20
-4639.9005
 11
-16950.726
 21
-4639.9005
  0
LINE
  8
┌▓È13
  6
DASHED
 10
-19950.726
 20
-4639.9005
 11
-20591.93575
 21
-4639.9005
  0
LINE
  8
┌▓È13
  6
DASHED
 10
-19867.39275
 20
-3356.5675
 11
-19867.39275
 21
-4656.56725
  0
LINE
  8
┌▓È13
  6
DASHED
 10
-19950.726
 20
-4273.23375
 11
-19950.726
 21
-4656.56725
  0
LINE
  8
┌▓È13
  6
DASHED
 10
-19867.39275
 20
-4656.56725
 11
-19950.726
 21
-4656.56725
  0
LINE
  8
┌▓È13
  6
DASHED
 10
-17034.05925
 20
-3356.5675
 11
-17034.05925
 21
-4656.56725
  0
LINE
  8
┌▓È13
  6
DASHED
 10
-17034.05925
 20
-4656.56725
 11
-16950.726
 21
-4656.56725
  0
LINE
  8
┌▓È13
  6
DASHED
 10
-16950.726
 20
-4273.23375
 11
-16950.726
 21
-4656.56725
  0
LINE
  8
┌▓È13
  6
DASHED
 10
-17034.05925
 20
-4656.56725
 11
-19867.39275
 21
-4656.56725
  0
LINE
  8
┌▓È13
  6
DASHED
 10
-16617.39275
 20
-3206.5675
 11
-20317.3925
 21
-3206.5675
  0
LINE
  8
┌▓È13
  6
DASHED
 10
-19950.726
 20
-4275.1225
 11
-19950.726
 21
-3206.5675
  0
LINE
  8
┌▓È13
  6
DASHED
 10
-20317.3925
 20
-4273.23375
 11
-20317.3925
 21
-3206.5675
  0
LINE
  8
┌▓È13
  6
DASHED
 10
-16950.726
 20
-4273.23375
 11
-16950.726
 21
-3206.5675
  0
LINE
  8
┌▓È13
  6
DASHED
 10
-16617.39275
 20
-4273.23375
 11
-16617.39275
 21
-3206.5675
  0
LINE
  8
┌▓È13
  6
DASHED
 10
-5117.3925
 20
-4273.23375
 11
-16617.39275
 21
-4273.23375
  0
LINE
  8
┌▓È13
  6
DASHED
 10
-20440.0575
 20
-4273.23375
 11
-20317.3925
 21
-4273.23375
  0
LINE
  8
┌▓È13
  6
DASHED
 10
-10284.059
 20
-4273.23375
 11
-10284.059
 21
-3206.5675
  0
LINE
  8
┌▓È13
  6
DASHED
 10
-10284.059
 20
-3206.5675
 11
-9950.72575
 21
-3206.5675
  0
LINE
  8
┌▓È13
  6
DASHED
 10
-9950.72575
 20
-4273.23375
 11
-9950.72575
 21
-3206.5675
  0
LINE
  8
┌▓È13
 10
15499.4235
 20
-3186.5675
 11
15832.75675
 21
-3186.5675
  0
LINE
  8
┌▓È13
 10
15519.4235
 20
-3206.5675
 11
15812.75675
 21
-3206.5675
  0
LINE
  8
┌▓È13
 10
15832.75675
 20
-3186.5675
 11
15832.75675
 21
-4273.23375
  0
LINE
  8
┌▓È13
 10
15812.75675
 20
-3206.5675
 11
15812.75675
 21
-4293.23375
  0
LINE
  8
┌▓È13
 10
15519.4235
 20
-3206.5675
 11
15519.4235
 21
-4293.23375
  0
LINE
  8
┌▓È13
 10
15499.4235
 20
-3186.5675
 11
15499.4235
 21
-4273.23375
  0
INSERT
  2
*DIM_0001
  8
Éíû@
 10
0.0
 20
0.0
  0
INSERT
  2
*DIM_0002
  8
Éíû@
 10
0.0
 20
0.0
  0
INSERT
  2
*DIM_0003
  8
Éíû@
 10
0.0
 20
0.0
  0
INSERT
  2
*DIM_0004
  8
Éíû@
 10
0.0
 20
0.0
  0
INSERT
  2
*DIM_0005
  8
Éíû@
 10
0.0
 20
0.0
  0
INSERT
  2
*DIM_0006
  8
Éíû@
 10
0.0
 20
0.0
  0
INSERT
  2
*DIM_0007
  8
Éíû@
 10
0.0
 20
0.0
  0
INSERT
  2
*DIM_0008
  8
Éíû@
 10
0.0
 20
0.0
  0
INSERT
  2
*DIM_0009
  8
Éíû@
 10
0.0
 20
0.0
  0
INSERT
  2
*DIM_0025
  8
Éíû@
 10
0.0
 20
0.0
  0
INSERT
  2
*DIM_0026
  8
Éíû@
 10
0.0
 20
0.0
  0
INSERT
  2
*DIM_0027
  8
Éíû@
 10
0.0
 20
0.0
  0
INSERT
  2
*DIM_0028
  8
Éíû@
 10
0.0
 20
0.0
  0
INSERT
  2
*DIM_0029
  8
Éíû@
 10
0.0
 20
0.0
  0
INSERT
  2
*DIM_0030
  8
Éíû@
 10
0.0
 20
0.0
  0
INSERT
  2
*DIM_0031
  8
Éíû@
 10
0.0
 20
0.0
  0
INSERT
  2
*DIM_0032
  8
Éíû@
 10
0.0
 20
0.0
  0
INSERT
  2
*DIM_0033
  8
Éíû@
 10
0.0
 20
0.0
  0
INSERT
  2
*DIM_0034
  8
Éíû@
 10
0.0
 20
0.0
  0
INSERT
  2
*DIM_0035
  8
Éíû@
 10
0.0
 20
0.0
  0
INSERT
  2
*DIM_0037
  8
Éíû@
 10
0.0
 20
0.0
  0
INSERT
  2
*DIM_0038
  8
Éíû@
 10
0.0
 20
0.0
  0
INSERT
  2
*DIM_0039
  8
Éíû@
 10
0.0
 20
0.0
  0
INSERT
  2
*DIM_0040
  8
Éíû@
 10
0.0
 20
0.0
  0
INSERT
  2
*DIM_0041
  8
Éíû@
 10
0.0
 20
0.0
  0
INSERT
  2
*DIM_0042
  8
Éíû@
 10
0.0
 20
0.0
  0
INSERT
  2
*DIM_0043
  8
Éíû@
 10
0.0
 20
0.0
  0
INSERT
  2
*DIM_0044
  8
Éíû@
 10
0.0
 20
0.0
  0
INSERT
  2
*DIM_0045
  8
Éíû@
 10
0.0
 20
0.0
  0
INSERT
  2
*DIM_0046
  8
Éíû@
 10
0.0
 20
0.0
  0
INSERT
  2
*DIM_0047
  8
Éíû@
 10
0.0
 20
0.0
  0
INSERT
  2
*DIM_0048
  8
Éíû@
 10
0.0
 20
0.0
  0
INSERT
  2
*DIM_0049
  8
Éíû@
 10
0.0
 20
0.0
  0
INSERT
  2
*DIM_0050
  8
Éíû@
 10
0.0
 20
0.0
  0
INSERT
  2
*DIM_0053
  8
Éíû@
 10
0.0
 20
0.0
  0
LINE
  8
Éíû@
 10
-13164.86825
 20
15540.13075
 11
-13667.659
 21
15540.13075
  0
LINE
  8
Éíû@
 10
-13667.659
 20
15540.13075
 11
-13489.33575
 21
15475.2265
  0
LINE
  8
Éíû@
 10
-13667.659
 20
15540.13075
 11
-13489.33575
 21
15605.035
  0
LINE
  8
Éíû@
 10
-13667.659
 20
12892.90025
 11
-13489.33575
 21
12957.8045
  0
LINE
  8
Éíû@
 10
-13667.659
 20
12892.90025
 11
-13489.33575
 21
12827.996
  0
POLYLINE
  8
Éíû@
 66
     1
  0
VERTEX
  8
Éíû@
 10
-13667.659
 20
12892.90025
  0
VERTEX
  8
Éíû@
 10
-13164.86825
 20
12892.90025
  0
VERTEX
  8
Éíû@
 10
-13164.86825
 20
15540.13075
  0
SEQEND
  0
INSERT
  2
*DIM_0054
  8
Éíû@
 10
0.0
 20
0.0
  0
INSERT
  2
*DIM_0055
  8
Éíû@
 10
0.0
 20
0.0
  0
INSERT
  2
*DIM_0056
  8
Éíû@
 10
0.0
 20
0.0
  0
INSERT
  2
*DIM_0057
  8
Éíû@
 10
0.0
 20
0.0
  0
INSERT
  2
*DIM_0058
  8
Éíû@
 10
0.0
 20
0.0
  0
INSERT
  2
*DIM_0059
  8
Éíû@
 10
0.0
 20
0.0
  0
INSERT
  2
*DIM_0060
  8
Éíû@
 10
0.0
 20
0.0
  0
INSERT
  2
*DIM_0061
  8
Éíû@
 10
0.0
 20
0.0
  0
INSERT
  2
*DIM_0062
  8
Éíû@
 10
0.0
 20
0.0
  0
INSERT
  2
*DIM_0063
  8
Éíû@
 10
0.0
 20
0.0
  0
INSERT
  2
*DIM_0064
  8
Éíû@
 10
0.0
 20
0.0
  0
INSERT
  2
*DIM_0065
  8
Éíû@
 10
0.0
 20
0.0
  0
INSERT
  2
*DIM_0068
  8
Éíû@
 10
0.0
 20
0.0
  0
LINE
  8
Éíû@
 10
-3280.9805
 20
-9665.818
 11
-3280.9805
 21
-10380.56625
  0
LINE
  8
Éíû@
 10
-3280.9805
 20
-10380.56625
 11
-3158.9765
 21
-10169.249
  0
LINE
  8
Éíû@
 10
-3280.9805
 20
-10380.56625
 11
-3402.9845
 21
-10169.249
  0
INSERT
  2
*DIM_0071
  8
Éíû@
 10
0.0
 20
0.0
  0
INSERT
  2
*DIM_0072
  8
Éíû@
 10
0.0
 20
0.0
  0
INSERT
  2
*DIM_0073
  8
Éíû@
 10
0.0
 20
0.0
  0
LINE
  8
Éíû@
 10
-22444.25625
 20
-9665.818
 11
-3280.9805
 21
-9665.818
  0
LINE
  8
Éíû@
 10
-22444.25625
 20
-9665.818
 11
-22444.25625
 21
-10380.56625
  0
LINE
  8
Éíû@
 10
-22444.25625
 20
-10380.56625
 11
-22322.25225
 21
-10169.249
  0
LINE
  8
Éíû@
 10
-22444.25625
 20
-10380.56625
 11
-22566.26025
 21
-10169.249
  0
INSERT
  2
*DIM_0097
  8
Éíû@
 10
0.0
 20
0.0
  0
INSERT
  2
*DIM_0098
  8
Éíû@
 10
0.0
 20
0.0
  0
INSERT
  2
*DIM_0099
  8
Éíû@
 10
0.0
 20
0.0
  0
INSERT
  2
*DIM_0100
  8
Éíû@
 10
0.0
 20
0.0
  0
INSERT
  2
*DIM_0101
  8
Éíû@
 10
0.0
 20
0.0
  0
INSERT
  2
*DIM_0102
  8
Éíû@
 10
0.0
 20
0.0
  0
INSERT
  2
*DIM_0103
  8
Éíû@
 10
0.0
 20
0.0
  0
INSERT
  2
*DIM_0104
  8
Éíû@
 10
0.0
 20
0.0
  0
INSERT
  2
*DIM_0105
  8
Éíû@
 10
0.0
 20
0.0
  0
INSERT
  2
*DIM_0106
  8
Éíû@
 10
0.0
 20
0.0
  0
INSERT
  2
*DIM_0107
  8
Éíû@
 10
0.0
 20
0.0
  0
INSERT
  2
*DIM_0108
  8
Éíû@
 10
0.0
 20
0.0
  0
INSERT
  2
*DIM_0109
  8
Éíû@
 10
0.0
 20
0.0
  0
INSERT
  2
*DIM_0110
  8
Éíû@
 10
0.0
 20
0.0
  0
INSERT
  2
*DIM_0111
  8
Éíû@
 10
0.0
 20
0.0
  0
INSERT
  2
*DIM_0112
  8
Éíû@
 10
0.0
 20
0.0
  0
INSERT
  2
*DIM_0113
  8
Éíû@
 10
0.0
 20
0.0
  0
INSERT
  2
*DIM_0114
  8
Éíû@
 10
0.0
 20
0.0
  0
INSERT
  2
*DIM_0116
  8
Éíû@
 10
0.0
 20
0.0
  0
INSERT
  2
*DIM_0117
  8
Éíû@
 10
0.0
 20
0.0
  0
INSERT
  2
*DIM_0118
  8
Éíû@
 10
0.0
 20
0.0
  0
INSERT
  2
*DIM_0119
  8
Éíû@
 10
0.0
 20
0.0
  0
INSERT
  2
*DIM_0120
  8
Éíû@
 10
0.0
 20
0.0
  0
INSERT
  2
*DIM_0121
  8
Éíû@
 10
0.0
 20
0.0
  0
INSERT
  2
*DIM_0122
  8
Éíû@
 10
0.0
 20
0.0
  0
ENDSEC
  0
EOF
