  0
SECTION
  2
HEADER
  9
$EXTMIN
 10
-29700.0
 20
-21000.0
  9
$EXTMAX
 10
29700.0
 20
21000.0
  9
$PDMODE
 70
    32
  9
$PDSIZE
 40
150.0
  9
$LTSCALE
 40
1000.0
  0
ENDSEC
  0
SECTION
  2
TABLES
  0
TABLE
  2
LTYPE
 70
    15
  0
LTYPE
  2
CONTINUOUS
 70
    64
  3
Ä└É³
 72
    65
 73
     0
 40
0.0
  0
LTYPE
  2
DASHED
 70
    64
  3
öjÉ³A
 72
    65
 73
     2
 40
0.6
 49
0.4
 49
-0.2
  0
LTYPE
  2
DASHEDX2
 70
    64
  3
öjÉ³B
 72
    65
 73
     2
 40
1.3
 49
0.9
 49
-0.4
  0
LTYPE
  2
DASHDOT
 70
    64
  3
éPô_ì¢É³A
 72
    65
 73
     4
 40
0.5375
 49
0.375
 49
-0.05
 49
0.0625
 49
-0.05
  0
LTYPE
  2
DASHDOTX2
 70
    64
  3
éPô_ì¢É³B
 72
    65
 73
     4
 40
1.075
 49
0.75
 49
-0.1
 49
0.125
 49
-0.1
  0
LTYPE
  2
DIVIDE2
 70
    64
  3
éQô_ì¢É³A
 72
    65
 73
     6
 40
0.5125
 49
0.3
 49
-0.0375
 49
0.05
 49
-0.0375
 49
0.05
 49
-0.0375
  0
LTYPE
  2
DIVIDE
 70
    64
  3
éQô_ì¢É³B
 72
    65
 73
     6
 40
1.05
 49
0.55
 49
-0.1
 49
0.1
 49
-0.1
 49
0.1
 49
-0.1
  0
LTYPE
  2
DOT
 70
    64
  3
ô_É³A
 72
    65
 73
     2
 40
0.1125
 49
0.0625
 49
-0.05
  0
LTYPE
  2
DOTX2
 70
    64
  3
ô_É³B
 72
    65
 73
     2
 40
0.275
 49
0.15
 49
-0.125
  0
LTYPE
  2
CONTINUOUS
 70
    64
  3
Ä└É³
 72
    65
 73
     0
 40
0.0
  0
LTYPE
  2
CONTINUOUS
 70
    64
  3
Ä└É³
 72
    65
 73
     0
 40
0.0
  0
LTYPE
  2
CONTINUOUS
 70
    64
  3
Ä└É³
 72
    65
 73
     0
 40
0.0
  0
LTYPE
  2
CONTINUOUS
 70
    64
  3
Ä└É³
 72
    65
 73
     0
 40
0.0
  0
LTYPE
  2
CONTINUOUS
 70
    64
  3
Ä└É³
 72
    65
 73
     0
 40
0.0
  0
LTYPE
  2
CONTINUOUS
 70
    64
  3
Ä└É³
 72
    65
 73
     0
 40
0.0
  0
ENDTAB
  0
TABLE
  2
LAYER
 70
    16
  0
LAYER
  2
┌▓È1
 70
     0
 62
    55
  6
CONTINUOUS
  0
LAYER
  2
┌▓È2
 70
     0
 62
    33
  6
CONTINUOUS
  0
LAYER
  2
┌▓È3
 70
     0
 62
    57
  6
CONTINUOUS
  0
LAYER
  2
┌▓È4
 70
     0
 62
    35
  6
CONTINUOUS
  0
LAYER
  2
┌▓È5
 70
     0
 62
    36
  6
CONTINUOUS
  0
LAYER
  2
┌▓È6
 70
     0
 62
    41
  6
CONTINUOUS
  0
LAYER
  2
òÔÅòÉ³
 70
     0
 62
   -38
  6
DOT
  0
LAYER
  2
òÂÄÜ
 70
     0
 62
    39
  6
CONTINUOUS
  0
LAYER
  2
Æ╩éÞÉc
 70
     0
 62
    40
  6
DASHDOT
  0
LAYER
  2
┌▓È10
 70
     0
 62
    64
  6
CONTINUOUS
  0
LAYER
  2
┌▓È11
 70
     0
 62
    42
  6
CONTINUOUS
  0
LAYER
  2
┌▓È12
 70
     0
 62
    43
  6
CONTINUOUS
  0
LAYER
  2
┌▓È13
 70
     0
 62
    44
  6
CONTINUOUS
  0
LAYER
  2
┌▓È14
 70
     0
 62
    27
  6
CONTINUOUS
  0
LAYER
  2
Éíû@
 70
     0
 62
    46
  6
CONTINUOUS
  0
LAYER
  2
╩»┴¦©Ì
 70
     0
 62
    47
  6
CONTINUOUS
  0
ENDTAB
  0
TABLE
  2
STYLE
 70
    10
  0
STYLE
  2
STANDARD
 70
     0
 40
100.0
 41
1.0
 42
100.0
 50
0.0
 71
     0
  3
TXT
  4
BIGFONT
  0
STYLE
  2
TATE
 70
     4
 40
100.0
 41
1.0
 42
100.0
 50
0.0
 71
     0
  3
TXT
  4
BIGFONT
  0
STYLE
  2
TextStyle03
 70
     0
 40
100.0
 41
1.0
 42
100.0
 50
0.0
 71
     0
  3
MONOTXT
  4
BIGFONT
  0
STYLE
  2
TextStyle04
 70
     0
 40
100.0
 41
1.0
 42
100.0
 50
0.0
 71
     0
  3
MONOTXT
  4
BIGFONT
  0
STYLE
  2
TextStyle05
 70
     0
 40
100.0
 41
1.0
 42
100.0
 50
0.0
 71
     0
  3
MONOTXT
  4
BIGFONT
  0
STYLE
  2
TextStyle06
 70
     0
 40
100.0
 41
1.0
 42
100.0
 50
0.0
 71
     0
  3
MONOTXT
  4
BIGFONT
  0
STYLE
  2
TextStyle07
 70
     0
 40
100.0
 41
1.0
 42
100.0
 50
0.0
 71
     0
  3
MONOTXT
  4
BIGFONT
  0
STYLE
  2
TextStyle08
 70
     0
 40
100.0
 41
1.0
 42
100.0
 50
0.0
 71
     0
  3
MONOTXT
  4
BIGFONT
  0
STYLE
  2
TextStyle09
 70
     0
 40
100.0
 41
1.0
 42
100.0
 50
0.0
 71
     0
  3
MONOTXT
  4
BIGFONT
  0
STYLE
  2
TextStyle10
 70
     0
 40
100.0
 41
1.0
 42
100.0
 50
0.0
 71
     0
  3
MONOTXT
  4
BIGFONT
  0
ENDTAB
  0
ENDSEC
  0
SECTION
  2
BLOCKS
  0
BLOCK
  2
*GRP_0001
 70
    65
 10
0.0
 20
0.0
  0
LINE
  8
┌▓È4
  6
CONTINUOUS
 10
-23465.1235
 20
7340.237
 11
-23465.1235
 21
7341.9035
  0
LINE
  8
┌▓È4
  6
CONTINUOUS
 10
-23465.1235
 20
7341.9035
 11
-23465.1235
 21
7345.237
  0
LINE
  8
┌▓È4
  6
CONTINUOUS
 10
-23465.1235
 20
7345.237
 11
-23463.45675
 21
7346.9035
  0
LINE
  8
┌▓È4
  6
CONTINUOUS
 10
-23463.45675
 20
7346.9035
 11
-23461.79
 21
7348.57025
  0
LINE
  8
┌▓È4
  6
CONTINUOUS
 10
-23461.79
 20
7348.57025
 11
-23460.1235
 21
7350.237
  0
LINE
  8
┌▓È4
  6
CONTINUOUS
 10
-23460.1235
 20
7350.237
 11
-23458.45675
 21
7351.9035
  0
LINE
  8
┌▓È4
  6
CONTINUOUS
 10
-23458.45675
 20
7351.9035
 11
-23456.79
 21
7353.57025
  0
LINE
  8
┌▓È4
  6
CONTINUOUS
 10
-23456.79
 20
7353.57025
 11
-23453.45675
 21
7353.57025
  0
LINE
  8
┌▓È4
  6
CONTINUOUS
 10
-23453.45675
 20
7353.57025
 11
-23451.79
 21
7353.57025
  0
LINE
  8
┌▓È4
  6
CONTINUOUS
 10
-23451.79
 20
7353.57025
 11
-23450.1235
 21
7353.57025
  0
LINE
  8
┌▓È4
  6
CONTINUOUS
 10
-23450.1235
 20
7353.57025
 11
-23446.79
 21
7353.57025
  0
LINE
  8
┌▓È4
  6
CONTINUOUS
 10
-23446.79
 20
7353.57025
 11
-23445.1235
 21
7351.9035
  0
LINE
  8
┌▓È4
  6
CONTINUOUS
 10
-23445.1235
 20
7351.9035
 11
-23443.45675
 21
7350.237
  0
LINE
  8
┌▓È4
  6
CONTINUOUS
 10
-23443.45675
 20
7350.237
 11
-23441.79
 21
7348.57025
  0
LINE
  8
┌▓È4
  6
CONTINUOUS
 10
-23441.79
 20
7348.57025
 11
-23440.1235
 21
7346.9035
  0
LINE
  8
┌▓È4
  6
CONTINUOUS
 10
-23440.1235
 20
7346.9035
 11
-23438.45675
 21
7345.237
  0
LINE
  8
┌▓È4
  6
CONTINUOUS
 10
-23438.45675
 20
7345.237
 11
-23438.45675
 21
7341.9035
  0
LINE
  8
┌▓È4
  6
CONTINUOUS
 10
-23438.45675
 20
7341.9035
 11
-23438.45675
 21
7340.237
  0
LINE
  8
┌▓È4
  6
CONTINUOUS
 10
-23438.45675
 20
7340.237
 11
-23438.45675
 21
7338.57025
  0
LINE
  8
┌▓È4
  6
CONTINUOUS
 10
-23438.45675
 20
7338.57025
 11
-23438.45675
 21
7335.237
  0
LINE
  8
┌▓È4
  6
CONTINUOUS
 10
-23438.45675
 20
7335.237
 11
-23440.1235
 21
7333.57025
  0
LINE
  8
┌▓È4
  6
CONTINUOUS
 10
-23440.1235
 20
7333.57025
 11
-23441.79
 21
7331.9035
  0
LINE
  8
┌▓È4
  6
CONTINUOUS
 10
-23441.79
 20
7331.9035
 11
-23443.45675
 21
7330.237
  0
LINE
  8
┌▓È4
  6
CONTINUOUS
 10
-23443.45675
 20
7330.237
 11
-23445.1235
 21
7328.57025
  0
LINE
  8
┌▓È4
  6
CONTINUOUS
 10
-23445.1235
 20
7328.57025
 11
-23446.79
 21
7326.9035
  0
LINE
  8
┌▓È4
  6
CONTINUOUS
 10
-23446.79
 20
7326.9035
 11
-23450.1235
 21
7326.9035
  0
LINE
  8
┌▓È4
  6
CONTINUOUS
 10
-23450.1235
 20
7326.9035
 11
-23451.79
 21
7326.9035
  0
LINE
  8
┌▓È4
  6
CONTINUOUS
 10
-23451.79
 20
7326.9035
 11
-23453.45675
 21
7326.9035
  0
LINE
  8
┌▓È4
  6
CONTINUOUS
 10
-23453.45675
 20
7326.9035
 11
-23456.79
 21
7326.9035
  0
LINE
  8
┌▓È4
  6
CONTINUOUS
 10
-23456.79
 20
7326.9035
 11
-23458.45675
 21
7328.57025
  0
LINE
  8
┌▓È4
  6
CONTINUOUS
 10
-23458.45675
 20
7328.57025
 11
-23460.1235
 21
7330.237
  0
LINE
  8
┌▓È4
  6
CONTINUOUS
 10
-23460.1235
 20
7330.237
 11
-23461.79
 21
7331.9035
  0
LINE
  8
┌▓È4
  6
CONTINUOUS
 10
-23461.79
 20
7331.9035
 11
-23463.45675
 21
7333.57025
  0
LINE
  8
┌▓È4
  6
CONTINUOUS
 10
-23463.45675
 20
7333.57025
 11
-23465.1235
 21
7335.237
  0
LINE
  8
┌▓È4
  6
CONTINUOUS
 10
-23465.1235
 20
7335.237
 11
-23465.1235
 21
7338.57025
  0
LINE
  8
┌▓È4
  6
CONTINUOUS
 10
-23465.1235
 20
7338.57025
 11
-23465.1235
 21
7340.237
  0
ENDBLK
  0
BLOCK
  2
*GRP_0002
 70
    65
 10
0.0
 20
0.0
  0
LINE
  8
┌▓È4
  6
CONTINUOUS
 10
-23465.1235
 20
7173.57025
 11
-23465.1235
 21
7175.237
  0
LINE
  8
┌▓È4
  6
CONTINUOUS
 10
-23465.1235
 20
7175.237
 11
-23465.1235
 21
7178.57025
  0
LINE
  8
┌▓È4
  6
CONTINUOUS
 10
-23465.1235
 20
7178.57025
 11
-23463.45675
 21
7180.237
  0
LINE
  8
┌▓È4
  6
CONTINUOUS
 10
-23463.45675
 20
7180.237
 11
-23461.79
 21
7181.9035
  0
LINE
  8
┌▓È4
  6
CONTINUOUS
 10
-23461.79
 20
7181.9035
 11
-23460.1235
 21
7183.57025
  0
LINE
  8
┌▓È4
  6
CONTINUOUS
 10
-23460.1235
 20
7183.57025
 11
-23458.45675
 21
7185.237
  0
LINE
  8
┌▓È4
  6
CONTINUOUS
 10
-23458.45675
 20
7185.237
 11
-23456.79
 21
7186.9035
  0
LINE
  8
┌▓È4
  6
CONTINUOUS
 10
-23456.79
 20
7186.9035
 11
-23453.45675
 21
7186.9035
  0
LINE
  8
┌▓È4
  6
CONTINUOUS
 10
-23453.45675
 20
7186.9035
 11
-23451.79
 21
7186.9035
  0
LINE
  8
┌▓È4
  6
CONTINUOUS
 10
-23451.79
 20
7186.9035
 11
-23450.1235
 21
7186.9035
  0
LINE
  8
┌▓È4
  6
CONTINUOUS
 10
-23450.1235
 20
7186.9035
 11
-23446.79
 21
7186.9035
  0
LINE
  8
┌▓È4
  6
CONTINUOUS
 10
-23446.79
 20
7186.9035
 11
-23445.1235
 21
7185.237
  0
LINE
  8
┌▓È4
  6
CONTINUOUS
 10
-23445.1235
 20
7185.237
 11
-23443.45675
 21
7183.57025
  0
LINE
  8
┌▓È4
  6
CONTINUOUS
 10
-23443.45675
 20
7183.57025
 11
-23441.79
 21
7181.9035
  0
LINE
  8
┌▓È4
  6
CONTINUOUS
 10
-23441.79
 20
7181.9035
 11
-23440.1235
 21
7180.237
  0
LINE
  8
┌▓È4
  6
CONTINUOUS
 10
-23440.1235
 20
7180.237
 11
-23438.45675
 21
7178.57025
  0
LINE
  8
┌▓È4
  6
CONTINUOUS
 10
-23438.45675
 20
7178.57025
 11
-23438.45675
 21
7175.237
  0
LINE
  8
┌▓È4
  6
CONTINUOUS
 10
-23438.45675
 20
7175.237
 11
-23438.45675
 21
7173.57025
  0
LINE
  8
┌▓È4
  6
CONTINUOUS
 10
-23438.45675
 20
7173.57025
 11
-23438.45675
 21
7171.9035
  0
LINE
  8
┌▓È4
  6
CONTINUOUS
 10
-23438.45675
 20
7171.9035
 11
-23438.45675
 21
7168.57025
  0
LINE
  8
┌▓È4
  6
CONTINUOUS
 10
-23438.45675
 20
7168.57025
 11
-23440.1235
 21
7166.9035
  0
LINE
  8
┌▓È4
  6
CONTINUOUS
 10
-23440.1235
 20
7166.9035
 11
-23441.79
 21
7165.237
  0
LINE
  8
┌▓È4
  6
CONTINUOUS
 10
-23441.79
 20
7165.237
 11
-23443.45675
 21
7163.57025
  0
LINE
  8
┌▓È4
  6
CONTINUOUS
 10
-23443.45675
 20
7163.57025
 11
-23445.1235
 21
7161.9035
  0
LINE
  8
┌▓È4
  6
CONTINUOUS
 10
-23445.1235
 20
7161.9035
 11
-23446.79
 21
7160.237
  0
LINE
  8
┌▓È4
  6
CONTINUOUS
 10
-23446.79
 20
7160.237
 11
-23450.1235
 21
7160.237
  0
LINE
  8
┌▓È4
  6
CONTINUOUS
 10
-23450.1235
 20
7160.237
 11
-23451.79
 21
7160.237
  0
LINE
  8
┌▓È4
  6
CONTINUOUS
 10
-23451.79
 20
7160.237
 11
-23453.45675
 21
7160.237
  0
LINE
  8
┌▓È4
  6
CONTINUOUS
 10
-23453.45675
 20
7160.237
 11
-23456.79
 21
7160.237
  0
LINE
  8
┌▓È4
  6
CONTINUOUS
 10
-23456.79
 20
7160.237
 11
-23458.45675
 21
7161.9035
  0
LINE
  8
┌▓È4
  6
CONTINUOUS
 10
-23458.45675
 20
7161.9035
 11
-23460.1235
 21
7163.57025
  0
LINE
  8
┌▓È4
  6
CONTINUOUS
 10
-23460.1235
 20
7163.57025
 11
-23461.79
 21
7165.237
  0
LINE
  8
┌▓È4
  6
CONTINUOUS
 10
-23461.79
 20
7165.237
 11
-23463.45675
 21
7166.9035
  0
LINE
  8
┌▓È4
  6
CONTINUOUS
 10
-23463.45675
 20
7166.9035
 11
-23465.1235
 21
7168.57025
  0
LINE
  8
┌▓È4
  6
CONTINUOUS
 10
-23465.1235
 20
7168.57025
 11
-23465.1235
 21
7171.9035
  0
LINE
  8
┌▓È4
  6
CONTINUOUS
 10
-23465.1235
 20
7171.9035
 11
-23465.1235
 21
7173.57025
  0
ENDBLK
  0
BLOCK
  2
*GRP_0003
 70
    65
 10
0.0
 20
0.0
  0
LINE
  8
┌▓È4
  6
CONTINUOUS
 10
-23465.1235
 20
7506.9035
 11
-23465.1235
 21
7508.57025
  0
LINE
  8
┌▓È4
  6
CONTINUOUS
 10
-23465.1235
 20
7508.57025
 11
-23465.1235
 21
7511.9035
  0
LINE
  8
┌▓È4
  6
CONTINUOUS
 10
-23465.1235
 20
7511.9035
 11
-23463.45675
 21
7513.57025
  0
LINE
  8
┌▓È4
  6
CONTINUOUS
 10
-23463.45675
 20
7513.57025
 11
-23461.79
 21
7515.237
  0
LINE
  8
┌▓È4
  6
CONTINUOUS
 10
-23461.79
 20
7515.237
 11
-23460.1235
 21
7516.9035
  0
LINE
  8
┌▓È4
  6
CONTINUOUS
 10
-23460.1235
 20
7516.9035
 11
-23458.45675
 21
7518.57025
  0
LINE
  8
┌▓È4
  6
CONTINUOUS
 10
-23458.45675
 20
7518.57025
 11
-23456.79
 21
7520.237
  0
LINE
  8
┌▓È4
  6
CONTINUOUS
 10
-23456.79
 20
7520.237
 11
-23453.45675
 21
7520.237
  0
LINE
  8
┌▓È4
  6
CONTINUOUS
 10
-23453.45675
 20
7520.237
 11
-23451.79
 21
7520.237
  0
LINE
  8
┌▓È4
  6
CONTINUOUS
 10
-23451.79
 20
7520.237
 11
-23450.1235
 21
7520.237
  0
LINE
  8
┌▓È4
  6
CONTINUOUS
 10
-23450.1235
 20
7520.237
 11
-23446.79
 21
7520.237
  0
LINE
  8
┌▓È4
  6
CONTINUOUS
 10
-23446.79
 20
7520.237
 11
-23445.1235
 21
7518.57025
  0
LINE
  8
┌▓È4
  6
CONTINUOUS
 10
-23445.1235
 20
7518.57025
 11
-23443.45675
 21
7516.9035
  0
LINE
  8
┌▓È4
  6
CONTINUOUS
 10
-23443.45675
 20
7516.9035
 11
-23441.79
 21
7515.237
  0
LINE
  8
┌▓È4
  6
CONTINUOUS
 10
-23441.79
 20
7515.237
 11
-23440.1235
 21
7513.57025
  0
LINE
  8
┌▓È4
  6
CONTINUOUS
 10
-23440.1235
 20
7513.57025
 11
-23438.45675
 21
7511.9035
  0
LINE
  8
┌▓È4
  6
CONTINUOUS
 10
-23438.45675
 20
7511.9035
 11
-23438.45675
 21
7508.57025
  0
LINE
  8
┌▓È4
  6
CONTINUOUS
 10
-23438.45675
 20
7508.57025
 11
-23438.45675
 21
7506.9035
  0
LINE
  8
┌▓È4
  6
CONTINUOUS
 10
-23438.45675
 20
7506.9035
 11
-23438.45675
 21
7505.237
  0
LINE
  8
┌▓È4
  6
CONTINUOUS
 10
-23438.45675
 20
7505.237
 11
-23438.45675
 21
7501.9035
  0
LINE
  8
┌▓È4
  6
CONTINUOUS
 10
-23438.45675
 20
7501.9035
 11
-23440.1235
 21
7500.237
  0
LINE
  8
┌▓È4
  6
CONTINUOUS
 10
-23440.1235
 20
7500.237
 11
-23441.79
 21
7498.57025
  0
LINE
  8
┌▓È4
  6
CONTINUOUS
 10
-23441.79
 20
7498.57025
 11
-23443.45675
 21
7496.9035
  0
LINE
  8
┌▓È4
  6
CONTINUOUS
 10
-23443.45675
 20
7496.9035
 11
-23445.1235
 21
7495.237
  0
LINE
  8
┌▓È4
  6
CONTINUOUS
 10
-23445.1235
 20
7495.237
 11
-23446.79
 21
7493.57025
  0
LINE
  8
┌▓È4
  6
CONTINUOUS
 10
-23446.79
 20
7493.57025
 11
-23450.1235
 21
7493.57025
  0
LINE
  8
┌▓È4
  6
CONTINUOUS
 10
-23450.1235
 20
7493.57025
 11
-23451.79
 21
7493.57025
  0
LINE
  8
┌▓È4
  6
CONTINUOUS
 10
-23451.79
 20
7493.57025
 11
-23453.45675
 21
7493.57025
  0
LINE
  8
┌▓È4
  6
CONTINUOUS
 10
-23453.45675
 20
7493.57025
 11
-23456.79
 21
7493.57025
  0
LINE
  8
┌▓È4
  6
CONTINUOUS
 10
-23456.79
 20
7493.57025
 11
-23458.45675
 21
7495.237
  0
LINE
  8
┌▓È4
  6
CONTINUOUS
 10
-23458.45675
 20
7495.237
 11
-23460.1235
 21
7496.9035
  0
LINE
  8
┌▓È4
  6
CONTINUOUS
 10
-23460.1235
 20
7496.9035
 11
-23461.79
 21
7498.57025
  0
LINE
  8
┌▓È4
  6
CONTINUOUS
 10
-23461.79
 20
7498.57025
 11
-23463.45675
 21
7500.237
  0
LINE
  8
┌▓È4
  6
CONTINUOUS
 10
-23463.45675
 20
7500.237
 11
-23465.1235
 21
7501.9035
  0
LINE
  8
┌▓È4
  6
CONTINUOUS
 10
-23465.1235
 20
7501.9035
 11
-23465.1235
 21
7505.237
  0
LINE
  8
┌▓È4
  6
CONTINUOUS
 10
-23465.1235
 20
7505.237
 11
-23465.1235
 21
7506.9035
  0
ENDBLK
  0
BLOCK
  2
*GRP_0004
 70
    65
 10
0.0
 20
0.0
  0
LINE
  8
┌▓È4
  6
CONTINUOUS
 10
-23535.1235
 20
9436.9035
 11
-23535.1235
 21
9438.57
  0
LINE
  8
┌▓È4
  6
CONTINUOUS
 10
-23535.1235
 20
9438.57
 11
-23535.1235
 21
9441.9035
  0
LINE
  8
┌▓È4
  6
CONTINUOUS
 10
-23535.1235
 20
9441.9035
 11
-23533.45675
 21
9443.57
  0
LINE
  8
┌▓È4
  6
CONTINUOUS
 10
-23533.45675
 20
9443.57
 11
-23531.79
 21
9445.23675
  0
LINE
  8
┌▓È4
  6
CONTINUOUS
 10
-23531.79
 20
9445.23675
 11
-23530.1235
 21
9446.9035
  0
LINE
  8
┌▓È4
  6
CONTINUOUS
 10
-23530.1235
 20
9446.9035
 11
-23528.45675
 21
9448.57
  0
LINE
  8
┌▓È4
  6
CONTINUOUS
 10
-23528.45675
 20
9448.57
 11
-23526.79
 21
9450.23675
  0
LINE
  8
┌▓È4
  6
CONTINUOUS
 10
-23526.79
 20
9450.23675
 11
-23523.45675
 21
9450.23675
  0
LINE
  8
┌▓È4
  6
CONTINUOUS
 10
-23523.45675
 20
9450.23675
 11
-23521.79
 21
9450.23675
  0
LINE
  8
┌▓È4
  6
CONTINUOUS
 10
-23521.79
 20
9450.23675
 11
-23520.1235
 21
9450.23675
  0
LINE
  8
┌▓È4
  6
CONTINUOUS
 10
-23520.1235
 20
9450.23675
 11
-23516.79
 21
9450.23675
  0
LINE
  8
┌▓È4
  6
CONTINUOUS
 10
-23516.79
 20
9450.23675
 11
-23515.1235
 21
9448.57
  0
LINE
  8
┌▓È4
  6
CONTINUOUS
 10
-23515.1235
 20
9448.57
 11
-23513.45675
 21
9446.9035
  0
LINE
  8
┌▓È4
  6
CONTINUOUS
 10
-23513.45675
 20
9446.9035
 11
-23511.79
 21
9445.23675
  0
LINE
  8
┌▓È4
  6
CONTINUOUS
 10
-23511.79
 20
9445.23675
 11
-23510.1235
 21
9443.57
  0
LINE
  8
┌▓È4
  6
CONTINUOUS
 10
-23510.1235
 20
9443.57
 11
-23508.45675
 21
9441.9035
  0
LINE
  8
┌▓È4
  6
CONTINUOUS
 10
-23508.45675
 20
9441.9035
 11
-23508.45675
 21
9438.57
  0
LINE
  8
┌▓È4
  6
CONTINUOUS
 10
-23508.45675
 20
9438.57
 11
-23508.45675
 21
9436.9035
  0
LINE
  8
┌▓È4
  6
CONTINUOUS
 10
-23508.45675
 20
9436.9035
 11
-23508.45675
 21
9435.23675
  0
LINE
  8
┌▓È4
  6
CONTINUOUS
 10
-23508.45675
 20
9435.23675
 11
-23508.45675
 21
9431.9035
  0
LINE
  8
┌▓È4
  6
CONTINUOUS
 10
-23508.45675
 20
9431.9035
 11
-23510.1235
 21
9430.23675
  0
LINE
  8
┌▓È4
  6
CONTINUOUS
 10
-23510.1235
 20
9430.23675
 11
-23511.79
 21
9428.57
  0
LINE
  8
┌▓È4
  6
CONTINUOUS
 10
-23511.79
 20
9428.57
 11
-23513.45675
 21
9426.9035
  0
LINE
  8
┌▓È4
  6
CONTINUOUS
 10
-23513.45675
 20
9426.9035
 11
-23515.1235
 21
9425.23675
  0
LINE
  8
┌▓È4
  6
CONTINUOUS
 10
-23515.1235
 20
9425.23675
 11
-23516.79
 21
9423.57
  0
LINE
  8
┌▓È4
  6
CONTINUOUS
 10
-23516.79
 20
9423.57
 11
-23520.1235
 21
9423.57
  0
LINE
  8
┌▓È4
  6
CONTINUOUS
 10
-23520.1235
 20
9423.57
 11
-23521.79
 21
9423.57
  0
LINE
  8
┌▓È4
  6
CONTINUOUS
 10
-23521.79
 20
9423.57
 11
-23523.45675
 21
9423.57
  0
LINE
  8
┌▓È4
  6
CONTINUOUS
 10
-23523.45675
 20
9423.57
 11
-23526.79
 21
9423.57
  0
LINE
  8
┌▓È4
  6
CONTINUOUS
 10
-23526.79
 20
9423.57
 11
-23528.45675
 21
9425.23675
  0
LINE
  8
┌▓È4
  6
CONTINUOUS
 10
-23528.45675
 20
9425.23675
 11
-23530.1235
 21
9426.9035
  0
LINE
  8
┌▓È4
  6
CONTINUOUS
 10
-23530.1235
 20
9426.9035
 11
-23531.79
 21
9428.57
  0
LINE
  8
┌▓È4
  6
CONTINUOUS
 10
-23531.79
 20
9428.57
 11
-23533.45675
 21
9430.23675
  0
LINE
  8
┌▓È4
  6
CONTINUOUS
 10
-23533.45675
 20
9430.23675
 11
-23535.1235
 21
9431.9035
  0
LINE
  8
┌▓È4
  6
CONTINUOUS
 10
-23535.1235
 20
9431.9035
 11
-23535.1235
 21
9435.23675
  0
LINE
  8
┌▓È4
  6
CONTINUOUS
 10
-23535.1235
 20
9435.23675
 11
-23535.1235
 21
9436.9035
  0
ENDBLK
  0
BLOCK
  2
*GRP_0005
 70
    65
 10
0.0
 20
0.0
  0
LINE
  8
┌▓È4
  6
CONTINUOUS
 10
-23535.1235
 20
9270.23675
 11
-23535.1235
 21
9271.9035
  0
LINE
  8
┌▓È4
  6
CONTINUOUS
 10
-23535.1235
 20
9271.9035
 11
-23535.1235
 21
9275.23675
  0
LINE
  8
┌▓È4
  6
CONTINUOUS
 10
-23535.1235
 20
9275.23675
 11
-23533.45675
 21
9276.9035
  0
LINE
  8
┌▓È4
  6
CONTINUOUS
 10
-23533.45675
 20
9276.9035
 11
-23531.79
 21
9278.57
  0
LINE
  8
┌▓È4
  6
CONTINUOUS
 10
-23531.79
 20
9278.57
 11
-23530.1235
 21
9280.23675
  0
LINE
  8
┌▓È4
  6
CONTINUOUS
 10
-23530.1235
 20
9280.23675
 11
-23528.45675
 21
9281.9035
  0
LINE
  8
┌▓È4
  6
CONTINUOUS
 10
-23528.45675
 20
9281.9035
 11
-23526.79
 21
9283.57
  0
LINE
  8
┌▓È4
  6
CONTINUOUS
 10
-23526.79
 20
9283.57
 11
-23523.45675
 21
9283.57
  0
LINE
  8
┌▓È4
  6
CONTINUOUS
 10
-23523.45675
 20
9283.57
 11
-23521.79
 21
9283.57
  0
LINE
  8
┌▓È4
  6
CONTINUOUS
 10
-23521.79
 20
9283.57
 11
-23520.1235
 21
9283.57
  0
LINE
  8
┌▓È4
  6
CONTINUOUS
 10
-23520.1235
 20
9283.57
 11
-23516.79
 21
9283.57
  0
LINE
  8
┌▓È4
  6
CONTINUOUS
 10
-23516.79
 20
9283.57
 11
-23515.1235
 21
9281.9035
  0
LINE
  8
┌▓È4
  6
CONTINUOUS
 10
-23515.1235
 20
9281.9035
 11
-23513.45675
 21
9280.23675
  0
LINE
  8
┌▓È4
  6
CONTINUOUS
 10
-23513.45675
 20
9280.23675
 11
-23511.79
 21
9278.57
  0
LINE
  8
┌▓È4
  6
CONTINUOUS
 10
-23511.79
 20
9278.57
 11
-23510.1235
 21
9276.9035
  0
LINE
  8
┌▓È4
  6
CONTINUOUS
 10
-23510.1235
 20
9276.9035
 11
-23508.45675
 21
9275.23675
  0
LINE
  8
┌▓È4
  6
CONTINUOUS
 10
-23508.45675
 20
9275.23675
 11
-23508.45675
 21
9271.9035
  0
LINE
  8
┌▓È4
  6
CONTINUOUS
 10
-23508.45675
 20
9271.9035
 11
-23508.45675
 21
9270.23675
  0
LINE
  8
┌▓È4
  6
CONTINUOUS
 10
-23508.45675
 20
9270.23675
 11
-23508.45675
 21
9268.57
  0
LINE
  8
┌▓È4
  6
CONTINUOUS
 10
-23508.45675
 20
9268.57
 11
-23508.45675
 21
9265.23675
  0
LINE
  8
┌▓È4
  6
CONTINUOUS
 10
-23508.45675
 20
9265.23675
 11
-23510.1235
 21
9263.57
  0
LINE
  8
┌▓È4
  6
CONTINUOUS
 10
-23510.1235
 20
9263.57
 11
-23511.79
 21
9261.9035
  0
LINE
  8
┌▓È4
  6
CONTINUOUS
 10
-23511.79
 20
9261.9035
 11
-23513.45675
 21
9260.23675
  0
LINE
  8
┌▓È4
  6
CONTINUOUS
 10
-23513.45675
 20
9260.23675
 11
-23515.1235
 21
9258.57
  0
LINE
  8
┌▓È4
  6
CONTINUOUS
 10
-23515.1235
 20
9258.57
 11
-23516.79
 21
9256.9035
  0
LINE
  8
┌▓È4
  6
CONTINUOUS
 10
-23516.79
 20
9256.9035
 11
-23520.1235
 21
9256.9035
  0
LINE
  8
┌▓È4
  6
CONTINUOUS
 10
-23520.1235
 20
9256.9035
 11
-23521.79
 21
9256.9035
  0
LINE
  8
┌▓È4
  6
CONTINUOUS
 10
-23521.79
 20
9256.9035
 11
-23523.45675
 21
9256.9035
  0
LINE
  8
┌▓È4
  6
CONTINUOUS
 10
-23523.45675
 20
9256.9035
 11
-23526.79
 21
9256.9035
  0
LINE
  8
┌▓È4
  6
CONTINUOUS
 10
-23526.79
 20
9256.9035
 11
-23528.45675
 21
9258.57
  0
LINE
  8
┌▓È4
  6
CONTINUOUS
 10
-23528.45675
 20
9258.57
 11
-23530.1235
 21
9260.23675
  0
LINE
  8
┌▓È4
  6
CONTINUOUS
 10
-23530.1235
 20
9260.23675
 11
-23531.79
 21
9261.9035
  0
LINE
  8
┌▓È4
  6
CONTINUOUS
 10
-23531.79
 20
9261.9035
 11
-23533.45675
 21
9263.57
  0
LINE
  8
┌▓È4
  6
CONTINUOUS
 10
-23533.45675
 20
9263.57
 11
-23535.1235
 21
9265.23675
  0
LINE
  8
┌▓È4
  6
CONTINUOUS
 10
-23535.1235
 20
9265.23675
 11
-23535.1235
 21
9268.57
  0
LINE
  8
┌▓È4
  6
CONTINUOUS
 10
-23535.1235
 20
9268.57
 11
-23535.1235
 21
9270.23675
  0
ENDBLK
  0
BLOCK
  2
*GRP_0006
 70
    65
 10
0.0
 20
0.0
  0
LINE
  8
┌▓È4
  6
CONTINUOUS
 10
-23535.1235
 20
9603.57
 11
-23535.1235
 21
9605.23675
  0
LINE
  8
┌▓È4
  6
CONTINUOUS
 10
-23535.1235
 20
9605.23675
 11
-23535.1235
 21
9608.57
  0
LINE
  8
┌▓È4
  6
CONTINUOUS
 10
-23535.1235
 20
9608.57
 11
-23533.45675
 21
9610.23675
  0
LINE
  8
┌▓È4
  6
CONTINUOUS
 10
-23533.45675
 20
9610.23675
 11
-23531.79
 21
9611.9035
  0
LINE
  8
┌▓È4
  6
CONTINUOUS
 10
-23531.79
 20
9611.9035
 11
-23530.1235
 21
9613.57
  0
LINE
  8
┌▓È4
  6
CONTINUOUS
 10
-23530.1235
 20
9613.57
 11
-23528.45675
 21
9615.23675
  0
LINE
  8
┌▓È4
  6
CONTINUOUS
 10
-23528.45675
 20
9615.23675
 11
-23526.79
 21
9616.9035
  0
LINE
  8
┌▓È4
  6
CONTINUOUS
 10
-23526.79
 20
9616.9035
 11
-23523.45675
 21
9616.9035
  0
LINE
  8
┌▓È4
  6
CONTINUOUS
 10
-23523.45675
 20
9616.9035
 11
-23521.79
 21
9616.9035
  0
LINE
  8
┌▓È4
  6
CONTINUOUS
 10
-23521.79
 20
9616.9035
 11
-23520.1235
 21
9616.9035
  0
LINE
  8
┌▓È4
  6
CONTINUOUS
 10
-23520.1235
 20
9616.9035
 11
-23516.79
 21
9616.9035
  0
LINE
  8
┌▓È4
  6
CONTINUOUS
 10
-23516.79
 20
9616.9035
 11
-23515.1235
 21
9615.23675
  0
LINE
  8
┌▓È4
  6
CONTINUOUS
 10
-23515.1235
 20
9615.23675
 11
-23513.45675
 21
9613.57
  0
LINE
  8
┌▓È4
  6
CONTINUOUS
 10
-23513.45675
 20
9613.57
 11
-23511.79
 21
9611.9035
  0
LINE
  8
┌▓È4
  6
CONTINUOUS
 10
-23511.79
 20
9611.9035
 11
-23510.1235
 21
9610.23675
  0
LINE
  8
┌▓È4
  6
CONTINUOUS
 10
-23510.1235
 20
9610.23675
 11
-23508.45675
 21
9608.57
  0
LINE
  8
┌▓È4
  6
CONTINUOUS
 10
-23508.45675
 20
9608.57
 11
-23508.45675
 21
9605.23675
  0
LINE
  8
┌▓È4
  6
CONTINUOUS
 10
-23508.45675
 20
9605.23675
 11
-23508.45675
 21
9603.57
  0
LINE
  8
┌▓È4
  6
CONTINUOUS
 10
-23508.45675
 20
9603.57
 11
-23508.45675
 21
9601.9035
  0
LINE
  8
┌▓È4
  6
CONTINUOUS
 10
-23508.45675
 20
9601.9035
 11
-23508.45675
 21
9598.57
  0
LINE
  8
┌▓È4
  6
CONTINUOUS
 10
-23508.45675
 20
9598.57
 11
-23510.1235
 21
9596.9035
  0
LINE
  8
┌▓È4
  6
CONTINUOUS
 10
-23510.1235
 20
9596.9035
 11
-23511.79
 21
9595.23675
  0
LINE
  8
┌▓È4
  6
CONTINUOUS
 10
-23511.79
 20
9595.23675
 11
-23513.45675
 21
9593.57
  0
LINE
  8
┌▓È4
  6
CONTINUOUS
 10
-23513.45675
 20
9593.57
 11
-23515.1235
 21
9591.9035
  0
LINE
  8
┌▓È4
  6
CONTINUOUS
 10
-23515.1235
 20
9591.9035
 11
-23516.79
 21
9590.23675
  0
LINE
  8
┌▓È4
  6
CONTINUOUS
 10
-23516.79
 20
9590.23675
 11
-23520.1235
 21
9590.23675
  0
LINE
  8
┌▓È4
  6
CONTINUOUS
 10
-23520.1235
 20
9590.23675
 11
-23521.79
 21
9590.23675
  0
LINE
  8
┌▓È4
  6
CONTINUOUS
 10
-23521.79
 20
9590.23675
 11
-23523.45675
 21
9590.23675
  0
LINE
  8
┌▓È4
  6
CONTINUOUS
 10
-23523.45675
 20
9590.23675
 11
-23526.79
 21
9590.23675
  0
LINE
  8
┌▓È4
  6
CONTINUOUS
 10
-23526.79
 20
9590.23675
 11
-23528.45675
 21
9591.9035
  0
LINE
  8
┌▓È4
  6
CONTINUOUS
 10
-23528.45675
 20
9591.9035
 11
-23530.1235
 21
9593.57
  0
LINE
  8
┌▓È4
  6
CONTINUOUS
 10
-23530.1235
 20
9593.57
 11
-23531.79
 21
9595.23675
  0
LINE
  8
┌▓È4
  6
CONTINUOUS
 10
-23531.79
 20
9595.23675
 11
-23533.45675
 21
9596.9035
  0
LINE
  8
┌▓È4
  6
CONTINUOUS
 10
-23533.45675
 20
9596.9035
 11
-23535.1235
 21
9598.57
  0
LINE
  8
┌▓È4
  6
CONTINUOUS
 10
-23535.1235
 20
9598.57
 11
-23535.1235
 21
9601.9035
  0
LINE
  8
┌▓È4
  6
CONTINUOUS
 10
-23535.1235
 20
9601.9035
 11
-23535.1235
 21
9603.57
  0
ENDBLK
  0
BLOCK
  2
*GRP_0007
 70
    65
 10
0.0
 20
0.0
  0
LINE
  8
┌▓È4
  6
CONTINUOUS
 10
-23535.1235
 20
10016.9035
 11
-23535.1235
 21
10018.57
  0
LINE
  8
┌▓È4
  6
CONTINUOUS
 10
-23535.1235
 20
10018.57
 11
-23535.1235
 21
10021.9035
  0
LINE
  8
┌▓È4
  6
CONTINUOUS
 10
-23535.1235
 20
10021.9035
 11
-23533.45675
 21
10023.57
  0
LINE
  8
┌▓È4
  6
CONTINUOUS
 10
-23533.45675
 20
10023.57
 11
-23531.79
 21
10025.23675
  0
LINE
  8
┌▓È4
  6
CONTINUOUS
 10
-23531.79
 20
10025.23675
 11
-23530.1235
 21
10026.9035
  0
LINE
  8
┌▓È4
  6
CONTINUOUS
 10
-23530.1235
 20
10026.9035
 11
-23528.45675
 21
10028.57
  0
LINE
  8
┌▓È4
  6
CONTINUOUS
 10
-23528.45675
 20
10028.57
 11
-23526.79
 21
10030.23675
  0
LINE
  8
┌▓È4
  6
CONTINUOUS
 10
-23526.79
 20
10030.23675
 11
-23523.45675
 21
10030.23675
  0
LINE
  8
┌▓È4
  6
CONTINUOUS
 10
-23523.45675
 20
10030.23675
 11
-23521.79
 21
10030.23675
  0
LINE
  8
┌▓È4
  6
CONTINUOUS
 10
-23521.79
 20
10030.23675
 11
-23520.1235
 21
10030.23675
  0
LINE
  8
┌▓È4
  6
CONTINUOUS
 10
-23520.1235
 20
10030.23675
 11
-23516.79
 21
10030.23675
  0
LINE
  8
┌▓È4
  6
CONTINUOUS
 10
-23516.79
 20
10030.23675
 11
-23515.1235
 21
10028.57
  0
LINE
  8
┌▓È4
  6
CONTINUOUS
 10
-23515.1235
 20
10028.57
 11
-23513.45675
 21
10026.9035
  0
LINE
  8
┌▓È4
  6
CONTINUOUS
 10
-23513.45675
 20
10026.9035
 11
-23511.79
 21
10025.23675
  0
LINE
  8
┌▓È4
  6
CONTINUOUS
 10
-23511.79
 20
10025.23675
 11
-23510.1235
 21
10023.57
  0
LINE
  8
┌▓È4
  6
CONTINUOUS
 10
-23510.1235
 20
10023.57
 11
-23508.45675
 21
10021.9035
  0
LINE
  8
┌▓È4
  6
CONTINUOUS
 10
-23508.45675
 20
10021.9035
 11
-23508.45675
 21
10018.57
  0
LINE
  8
┌▓È4
  6
CONTINUOUS
 10
-23508.45675
 20
10018.57
 11
-23508.45675
 21
10016.9035
  0
LINE
  8
┌▓È4
  6
CONTINUOUS
 10
-23508.45675
 20
10016.9035
 11
-23508.45675
 21
10015.23675
  0
LINE
  8
┌▓È4
  6
CONTINUOUS
 10
-23508.45675
 20
10015.23675
 11
-23508.45675
 21
10011.9035
  0
LINE
  8
┌▓È4
  6
CONTINUOUS
 10
-23508.45675
 20
10011.9035
 11
-23510.1235
 21
10010.23675
  0
LINE
  8
┌▓È4
  6
CONTINUOUS
 10
-23510.1235
 20
10010.23675
 11
-23511.79
 21
10008.57
  0
LINE
  8
┌▓È4
  6
CONTINUOUS
 10
-23511.79
 20
10008.57
 11
-23513.45675
 21
10006.9035
  0
LINE
  8
┌▓È4
  6
CONTINUOUS
 10
-23513.45675
 20
10006.9035
 11
-23515.1235
 21
10005.23675
  0
LINE
  8
┌▓È4
  6
CONTINUOUS
 10
-23515.1235
 20
10005.23675
 11
-23516.79
 21
10003.57
  0
LINE
  8
┌▓È4
  6
CONTINUOUS
 10
-23516.79
 20
10003.57
 11
-23520.1235
 21
10003.57
  0
LINE
  8
┌▓È4
  6
CONTINUOUS
 10
-23520.1235
 20
10003.57
 11
-23521.79
 21
10003.57
  0
LINE
  8
┌▓È4
  6
CONTINUOUS
 10
-23521.79
 20
10003.57
 11
-23523.45675
 21
10003.57
  0
LINE
  8
┌▓È4
  6
CONTINUOUS
 10
-23523.45675
 20
10003.57
 11
-23526.79
 21
10003.57
  0
LINE
  8
┌▓È4
  6
CONTINUOUS
 10
-23526.79
 20
10003.57
 11
-23528.45675
 21
10005.23675
  0
LINE
  8
┌▓È4
  6
CONTINUOUS
 10
-23528.45675
 20
10005.23675
 11
-23530.1235
 21
10006.9035
  0
LINE
  8
┌▓È4
  6
CONTINUOUS
 10
-23530.1235
 20
10006.9035
 11
-23531.79
 21
10008.57
  0
LINE
  8
┌▓È4
  6
CONTINUOUS
 10
-23531.79
 20
10008.57
 11
-23533.45675
 21
10010.23675
  0
LINE
  8
┌▓È4
  6
CONTINUOUS
 10
-23533.45675
 20
10010.23675
 11
-23535.1235
 21
10011.9035
  0
LINE
  8
┌▓È4
  6
CONTINUOUS
 10
-23535.1235
 20
10011.9035
 11
-23535.1235
 21
10015.23675
  0
LINE
  8
┌▓È4
  6
CONTINUOUS
 10
-23535.1235
 20
10015.23675
 11
-23535.1235
 21
10016.9035
  0
ENDBLK
  0
BLOCK
  2
*GRP_0008
 70
    65
 10
0.0
 20
0.0
  0
LINE
  8
┌▓È4
  6
CONTINUOUS
 10
-23535.1235
 20
9850.23675
 11
-23535.1235
 21
9851.9035
  0
LINE
  8
┌▓È4
  6
CONTINUOUS
 10
-23535.1235
 20
9851.9035
 11
-23535.1235
 21
9855.23675
  0
LINE
  8
┌▓È4
  6
CONTINUOUS
 10
-23535.1235
 20
9855.23675
 11
-23533.45675
 21
9856.9035
  0
LINE
  8
┌▓È4
  6
CONTINUOUS
 10
-23533.45675
 20
9856.9035
 11
-23531.79
 21
9858.57
  0
LINE
  8
┌▓È4
  6
CONTINUOUS
 10
-23531.79
 20
9858.57
 11
-23530.1235
 21
9860.23675
  0
LINE
  8
┌▓È4
  6
CONTINUOUS
 10
-23530.1235
 20
9860.23675
 11
-23528.45675
 21
9861.9035
  0
LINE
  8
┌▓È4
  6
CONTINUOUS
 10
-23528.45675
 20
9861.9035
 11
-23526.79
 21
9863.57
  0
LINE
  8
┌▓È4
  6
CONTINUOUS
 10
-23526.79
 20
9863.57
 11
-23523.45675
 21
9863.57
  0
LINE
  8
┌▓È4
  6
CONTINUOUS
 10
-23523.45675
 20
9863.57
 11
-23521.79
 21
9863.57
  0
LINE
  8
┌▓È4
  6
CONTINUOUS
 10
-23521.79
 20
9863.57
 11
-23520.1235
 21
9863.57
  0
LINE
  8
┌▓È4
  6
CONTINUOUS
 10
-23520.1235
 20
9863.57
 11
-23516.79
 21
9863.57
  0
LINE
  8
┌▓È4
  6
CONTINUOUS
 10
-23516.79
 20
9863.57
 11
-23515.1235
 21
9861.9035
  0
LINE
  8
┌▓È4
  6
CONTINUOUS
 10
-23515.1235
 20
9861.9035
 11
-23513.45675
 21
9860.23675
  0
LINE
  8
┌▓È4
  6
CONTINUOUS
 10
-23513.45675
 20
9860.23675
 11
-23511.79
 21
9858.57
  0
LINE
  8
┌▓È4
  6
CONTINUOUS
 10
-23511.79
 20
9858.57
 11
-23510.1235
 21
9856.9035
  0
LINE
  8
┌▓È4
  6
CONTINUOUS
 10
-23510.1235
 20
9856.9035
 11
-23508.45675
 21
9855.23675
  0
LINE
  8
┌▓È4
  6
CONTINUOUS
 10
-23508.45675
 20
9855.23675
 11
-23508.45675
 21
9851.9035
  0
LINE
  8
┌▓È4
  6
CONTINUOUS
 10
-23508.45675
 20
9851.9035
 11
-23508.45675
 21
9850.23675
  0
LINE
  8
┌▓È4
  6
CONTINUOUS
 10
-23508.45675
 20
9850.23675
 11
-23508.45675
 21
9848.57
  0
LINE
  8
┌▓È4
  6
CONTINUOUS
 10
-23508.45675
 20
9848.57
 11
-23508.45675
 21
9845.23675
  0
LINE
  8
┌▓È4
  6
CONTINUOUS
 10
-23508.45675
 20
9845.23675
 11
-23510.1235
 21
9843.57
  0
LINE
  8
┌▓È4
  6
CONTINUOUS
 10
-23510.1235
 20
9843.57
 11
-23511.79
 21
9841.9035
  0
LINE
  8
┌▓È4
  6
CONTINUOUS
 10
-23511.79
 20
9841.9035
 11
-23513.45675
 21
9840.23675
  0
LINE
  8
┌▓È4
  6
CONTINUOUS
 10
-23513.45675
 20
9840.23675
 11
-23515.1235
 21
9838.57
  0
LINE
  8
┌▓È4
  6
CONTINUOUS
 10
-23515.1235
 20
9838.57
 11
-23516.79
 21
9836.9035
  0
LINE
  8
┌▓È4
  6
CONTINUOUS
 10
-23516.79
 20
9836.9035
 11
-23520.1235
 21
9836.9035
  0
LINE
  8
┌▓È4
  6
CONTINUOUS
 10
-23520.1235
 20
9836.9035
 11
-23521.79
 21
9836.9035
  0
LINE
  8
┌▓È4
  6
CONTINUOUS
 10
-23521.79
 20
9836.9035
 11
-23523.45675
 21
9836.9035
  0
LINE
  8
┌▓È4
  6
CONTINUOUS
 10
-23523.45675
 20
9836.9035
 11
-23526.79
 21
9836.9035
  0
LINE
  8
┌▓È4
  6
CONTINUOUS
 10
-23526.79
 20
9836.9035
 11
-23528.45675
 21
9838.57
  0
LINE
  8
┌▓È4
  6
CONTINUOUS
 10
-23528.45675
 20
9838.57
 11
-23530.1235
 21
9840.23675
  0
LINE
  8
┌▓È4
  6
CONTINUOUS
 10
-23530.1235
 20
9840.23675
 11
-23531.79
 21
9841.9035
  0
LINE
  8
┌▓È4
  6
CONTINUOUS
 10
-23531.79
 20
9841.9035
 11
-23533.45675
 21
9843.57
  0
LINE
  8
┌▓È4
  6
CONTINUOUS
 10
-23533.45675
 20
9843.57
 11
-23535.1235
 21
9845.23675
  0
LINE
  8
┌▓È4
  6
CONTINUOUS
 10
-23535.1235
 20
9845.23675
 11
-23535.1235
 21
9848.57
  0
LINE
  8
┌▓È4
  6
CONTINUOUS
 10
-23535.1235
 20
9848.57
 11
-23535.1235
 21
9850.23675
  0
ENDBLK
  0
BLOCK
  2
*GRP_0009
 70
    65
 10
0.0
 20
0.0
  0
LINE
  8
┌▓È4
  6
CONTINUOUS
 10
-23535.1235
 20
10183.57
 11
-23535.1235
 21
10185.23675
  0
LINE
  8
┌▓È4
  6
CONTINUOUS
 10
-23535.1235
 20
10185.23675
 11
-23535.1235
 21
10188.57
  0
LINE
  8
┌▓È4
  6
CONTINUOUS
 10
-23535.1235
 20
10188.57
 11
-23533.45675
 21
10190.23675
  0
LINE
  8
┌▓È4
  6
CONTINUOUS
 10
-23533.45675
 20
10190.23675
 11
-23531.79
 21
10191.9035
  0
LINE
  8
┌▓È4
  6
CONTINUOUS
 10
-23531.79
 20
10191.9035
 11
-23530.1235
 21
10193.57
  0
LINE
  8
┌▓È4
  6
CONTINUOUS
 10
-23530.1235
 20
10193.57
 11
-23528.45675
 21
10195.23675
  0
LINE
  8
┌▓È4
  6
CONTINUOUS
 10
-23528.45675
 20
10195.23675
 11
-23526.79
 21
10196.9035
  0
LINE
  8
┌▓È4
  6
CONTINUOUS
 10
-23526.79
 20
10196.9035
 11
-23523.45675
 21
10196.9035
  0
LINE
  8
┌▓È4
  6
CONTINUOUS
 10
-23523.45675
 20
10196.9035
 11
-23521.79
 21
10196.9035
  0
LINE
  8
┌▓È4
  6
CONTINUOUS
 10
-23521.79
 20
10196.9035
 11
-23520.1235
 21
10196.9035
  0
LINE
  8
┌▓È4
  6
CONTINUOUS
 10
-23520.1235
 20
10196.9035
 11
-23516.79
 21
10196.9035
  0
LINE
  8
┌▓È4
  6
CONTINUOUS
 10
-23516.79
 20
10196.9035
 11
-23515.1235
 21
10195.23675
  0
LINE
  8
┌▓È4
  6
CONTINUOUS
 10
-23515.1235
 20
10195.23675
 11
-23513.45675
 21
10193.57
  0
LINE
  8
┌▓È4
  6
CONTINUOUS
 10
-23513.45675
 20
10193.57
 11
-23511.79
 21
10191.9035
  0
LINE
  8
┌▓È4
  6
CONTINUOUS
 10
-23511.79
 20
10191.9035
 11
-23510.1235
 21
10190.23675
  0
LINE
  8
┌▓È4
  6
CONTINUOUS
 10
-23510.1235
 20
10190.23675
 11
-23508.45675
 21
10188.57
  0
LINE
  8
┌▓È4
  6
CONTINUOUS
 10
-23508.45675
 20
10188.57
 11
-23508.45675
 21
10185.23675
  0
LINE
  8
┌▓È4
  6
CONTINUOUS
 10
-23508.45675
 20
10185.23675
 11
-23508.45675
 21
10183.57
  0
LINE
  8
┌▓È4
  6
CONTINUOUS
 10
-23508.45675
 20
10183.57
 11
-23508.45675
 21
10181.9035
  0
LINE
  8
┌▓È4
  6
CONTINUOUS
 10
-23508.45675
 20
10181.9035
 11
-23508.45675
 21
10178.57
  0
LINE
  8
┌▓È4
  6
CONTINUOUS
 10
-23508.45675
 20
10178.57
 11
-23510.1235
 21
10176.9035
  0
LINE
  8
┌▓È4
  6
CONTINUOUS
 10
-23510.1235
 20
10176.9035
 11
-23511.79
 21
10175.23675
  0
LINE
  8
┌▓È4
  6
CONTINUOUS
 10
-23511.79
 20
10175.23675
 11
-23513.45675
 21
10173.57
  0
LINE
  8
┌▓È4
  6
CONTINUOUS
 10
-23513.45675
 20
10173.57
 11
-23515.1235
 21
10171.9035
  0
LINE
  8
┌▓È4
  6
CONTINUOUS
 10
-23515.1235
 20
10171.9035
 11
-23516.79
 21
10170.23675
  0
LINE
  8
┌▓È4
  6
CONTINUOUS
 10
-23516.79
 20
10170.23675
 11
-23520.1235
 21
10170.23675
  0
LINE
  8
┌▓È4
  6
CONTINUOUS
 10
-23520.1235
 20
10170.23675
 11
-23521.79
 21
10170.23675
  0
LINE
  8
┌▓È4
  6
CONTINUOUS
 10
-23521.79
 20
10170.23675
 11
-23523.45675
 21
10170.23675
  0
LINE
  8
┌▓È4
  6
CONTINUOUS
 10
-23523.45675
 20
10170.23675
 11
-23526.79
 21
10170.23675
  0
LINE
  8
┌▓È4
  6
CONTINUOUS
 10
-23526.79
 20
10170.23675
 11
-23528.45675
 21
10171.9035
  0
LINE
  8
┌▓È4
  6
CONTINUOUS
 10
-23528.45675
 20
10171.9035
 11
-23530.1235
 21
10173.57
  0
LINE
  8
┌▓È4
  6
CONTINUOUS
 10
-23530.1235
 20
10173.57
 11
-23531.79
 21
10175.23675
  0
LINE
  8
┌▓È4
  6
CONTINUOUS
 10
-23531.79
 20
10175.23675
 11
-23533.45675
 21
10176.9035
  0
LINE
  8
┌▓È4
  6
CONTINUOUS
 10
-23533.45675
 20
10176.9035
 11
-23535.1235
 21
10178.57
  0
LINE
  8
┌▓È4
  6
CONTINUOUS
 10
-23535.1235
 20
10178.57
 11
-23535.1235
 21
10181.9035
  0
LINE
  8
┌▓È4
  6
CONTINUOUS
 10
-23535.1235
 20
10181.9035
 11
-23535.1235
 21
10183.57
  0
ENDBLK
  0
BLOCK
  2
*GRP_0010
 70
    65
 10
0.0
 20
0.0
  0
LINE
  8
┌▓È4
  6
CONTINUOUS
 10
-23535.1235
 20
10596.9035
 11
-23535.1235
 21
10598.57
  0
LINE
  8
┌▓È4
  6
CONTINUOUS
 10
-23535.1235
 20
10598.57
 11
-23535.1235
 21
10601.9035
  0
LINE
  8
┌▓È4
  6
CONTINUOUS
 10
-23535.1235
 20
10601.9035
 11
-23533.45675
 21
10603.57
  0
LINE
  8
┌▓È4
  6
CONTINUOUS
 10
-23533.45675
 20
10603.57
 11
-23531.79
 21
10605.23675
  0
LINE
  8
┌▓È4
  6
CONTINUOUS
 10
-23531.79
 20
10605.23675
 11
-23530.1235
 21
10606.9035
  0
LINE
  8
┌▓È4
  6
CONTINUOUS
 10
-23530.1235
 20
10606.9035
 11
-23528.45675
 21
10608.57
  0
LINE
  8
┌▓È4
  6
CONTINUOUS
 10
-23528.45675
 20
10608.57
 11
-23526.79
 21
10610.23675
  0
LINE
  8
┌▓È4
  6
CONTINUOUS
 10
-23526.79
 20
10610.23675
 11
-23523.45675
 21
10610.23675
  0
LINE
  8
┌▓È4
  6
CONTINUOUS
 10
-23523.45675
 20
10610.23675
 11
-23521.79
 21
10610.23675
  0
LINE
  8
┌▓È4
  6
CONTINUOUS
 10
-23521.79
 20
10610.23675
 11
-23520.1235
 21
10610.23675
  0
LINE
  8
┌▓È4
  6
CONTINUOUS
 10
-23520.1235
 20
10610.23675
 11
-23516.79
 21
10610.23675
  0
LINE
  8
┌▓È4
  6
CONTINUOUS
 10
-23516.79
 20
10610.23675
 11
-23515.1235
 21
10608.57
  0
LINE
  8
┌▓È4
  6
CONTINUOUS
 10
-23515.1235
 20
10608.57
 11
-23513.45675
 21
10606.9035
  0
LINE
  8
┌▓È4
  6
CONTINUOUS
 10
-23513.45675
 20
10606.9035
 11
-23511.79
 21
10605.23675
  0
LINE
  8
┌▓È4
  6
CONTINUOUS
 10
-23511.79
 20
10605.23675
 11
-23510.1235
 21
10603.57
  0
LINE
  8
┌▓È4
  6
CONTINUOUS
 10
-23510.1235
 20
10603.57
 11
-23508.45675
 21
10601.9035
  0
LINE
  8
┌▓È4
  6
CONTINUOUS
 10
-23508.45675
 20
10601.9035
 11
-23508.45675
 21
10598.57
  0
LINE
  8
┌▓È4
  6
CONTINUOUS
 10
-23508.45675
 20
10598.57
 11
-23508.45675
 21
10596.9035
  0
LINE
  8
┌▓È4
  6
CONTINUOUS
 10
-23508.45675
 20
10596.9035
 11
-23508.45675
 21
10595.23675
  0
LINE
  8
┌▓È4
  6
CONTINUOUS
 10
-23508.45675
 20
10595.23675
 11
-23508.45675
 21
10591.9035
  0
LINE
  8
┌▓È4
  6
CONTINUOUS
 10
-23508.45675
 20
10591.9035
 11
-23510.1235
 21
10590.23675
  0
LINE
  8
┌▓È4
  6
CONTINUOUS
 10
-23510.1235
 20
10590.23675
 11
-23511.79
 21
10588.57
  0
LINE
  8
┌▓È4
  6
CONTINUOUS
 10
-23511.79
 20
10588.57
 11
-23513.45675
 21
10586.9035
  0
LINE
  8
┌▓È4
  6
CONTINUOUS
 10
-23513.45675
 20
10586.9035
 11
-23515.1235
 21
10585.23675
  0
LINE
  8
┌▓È4
  6
CONTINUOUS
 10
-23515.1235
 20
10585.23675
 11
-23516.79
 21
10583.57
  0
LINE
  8
┌▓È4
  6
CONTINUOUS
 10
-23516.79
 20
10583.57
 11
-23520.1235
 21
10583.57
  0
LINE
  8
┌▓È4
  6
CONTINUOUS
 10
-23520.1235
 20
10583.57
 11
-23521.79
 21
10583.57
  0
LINE
  8
┌▓È4
  6
CONTINUOUS
 10
-23521.79
 20
10583.57
 11
-23523.45675
 21
10583.57
  0
LINE
  8
┌▓È4
  6
CONTINUOUS
 10
-23523.45675
 20
10583.57
 11
-23526.79
 21
10583.57
  0
LINE
  8
┌▓È4
  6
CONTINUOUS
 10
-23526.79
 20
10583.57
 11
-23528.45675
 21
10585.23675
  0
LINE
  8
┌▓È4
  6
CONTINUOUS
 10
-23528.45675
 20
10585.23675
 11
-23530.1235
 21
10586.9035
  0
LINE
  8
┌▓È4
  6
CONTINUOUS
 10
-23530.1235
 20
10586.9035
 11
-23531.79
 21
10588.57
  0
LINE
  8
┌▓È4
  6
CONTINUOUS
 10
-23531.79
 20
10588.57
 11
-23533.45675
 21
10590.23675
  0
LINE
  8
┌▓È4
  6
CONTINUOUS
 10
-23533.45675
 20
10590.23675
 11
-23535.1235
 21
10591.9035
  0
LINE
  8
┌▓È4
  6
CONTINUOUS
 10
-23535.1235
 20
10591.9035
 11
-23535.1235
 21
10595.23675
  0
LINE
  8
┌▓È4
  6
CONTINUOUS
 10
-23535.1235
 20
10595.23675
 11
-23535.1235
 21
10596.9035
  0
ENDBLK
  0
BLOCK
  2
*GRP_0011
 70
    65
 10
0.0
 20
0.0
  0
LINE
  8
┌▓È4
  6
CONTINUOUS
 10
-23535.1235
 20
10430.23675
 11
-23535.1235
 21
10431.9035
  0
LINE
  8
┌▓È4
  6
CONTINUOUS
 10
-23535.1235
 20
10431.9035
 11
-23535.1235
 21
10435.23675
  0
LINE
  8
┌▓È4
  6
CONTINUOUS
 10
-23535.1235
 20
10435.23675
 11
-23533.45675
 21
10436.9035
  0
LINE
  8
┌▓È4
  6
CONTINUOUS
 10
-23533.45675
 20
10436.9035
 11
-23531.79
 21
10438.57
  0
LINE
  8
┌▓È4
  6
CONTINUOUS
 10
-23531.79
 20
10438.57
 11
-23530.1235
 21
10440.23675
  0
LINE
  8
┌▓È4
  6
CONTINUOUS
 10
-23530.1235
 20
10440.23675
 11
-23528.45675
 21
10441.9035
  0
LINE
  8
┌▓È4
  6
CONTINUOUS
 10
-23528.45675
 20
10441.9035
 11
-23526.79
 21
10443.57
  0
LINE
  8
┌▓È4
  6
CONTINUOUS
 10
-23526.79
 20
10443.57
 11
-23523.45675
 21
10443.57
  0
LINE
  8
┌▓È4
  6
CONTINUOUS
 10
-23523.45675
 20
10443.57
 11
-23521.79
 21
10443.57
  0
LINE
  8
┌▓È4
  6
CONTINUOUS
 10
-23521.79
 20
10443.57
 11
-23520.1235
 21
10443.57
  0
LINE
  8
┌▓È4
  6
CONTINUOUS
 10
-23520.1235
 20
10443.57
 11
-23516.79
 21
10443.57
  0
LINE
  8
┌▓È4
  6
CONTINUOUS
 10
-23516.79
 20
10443.57
 11
-23515.1235
 21
10441.9035
  0
LINE
  8
┌▓È4
  6
CONTINUOUS
 10
-23515.1235
 20
10441.9035
 11
-23513.45675
 21
10440.23675
  0
LINE
  8
┌▓È4
  6
CONTINUOUS
 10
-23513.45675
 20
10440.23675
 11
-23511.79
 21
10438.57
  0
LINE
  8
┌▓È4
  6
CONTINUOUS
 10
-23511.79
 20
10438.57
 11
-23510.1235
 21
10436.9035
  0
LINE
  8
┌▓È4
  6
CONTINUOUS
 10
-23510.1235
 20
10436.9035
 11
-23508.45675
 21
10435.23675
  0
LINE
  8
┌▓È4
  6
CONTINUOUS
 10
-23508.45675
 20
10435.23675
 11
-23508.45675
 21
10431.9035
  0
LINE
  8
┌▓È4
  6
CONTINUOUS
 10
-23508.45675
 20
10431.9035
 11
-23508.45675
 21
10430.23675
  0
LINE
  8
┌▓È4
  6
CONTINUOUS
 10
-23508.45675
 20
10430.23675
 11
-23508.45675
 21
10428.57
  0
LINE
  8
┌▓È4
  6
CONTINUOUS
 10
-23508.45675
 20
10428.57
 11
-23508.45675
 21
10425.23675
  0
LINE
  8
┌▓È4
  6
CONTINUOUS
 10
-23508.45675
 20
10425.23675
 11
-23510.1235
 21
10423.57
  0
LINE
  8
┌▓È4
  6
CONTINUOUS
 10
-23510.1235
 20
10423.57
 11
-23511.79
 21
10421.9035
  0
LINE
  8
┌▓È4
  6
CONTINUOUS
 10
-23511.79
 20
10421.9035
 11
-23513.45675
 21
10420.23675
  0
LINE
  8
┌▓È4
  6
CONTINUOUS
 10
-23513.45675
 20
10420.23675
 11
-23515.1235
 21
10418.57
  0
LINE
  8
┌▓È4
  6
CONTINUOUS
 10
-23515.1235
 20
10418.57
 11
-23516.79
 21
10416.9035
  0
LINE
  8
┌▓È4
  6
CONTINUOUS
 10
-23516.79
 20
10416.9035
 11
-23520.1235
 21
10416.9035
  0
LINE
  8
┌▓È4
  6
CONTINUOUS
 10
-23520.1235
 20
10416.9035
 11
-23521.79
 21
10416.9035
  0
LINE
  8
┌▓È4
  6
CONTINUOUS
 10
-23521.79
 20
10416.9035
 11
-23523.45675
 21
10416.9035
  0
LINE
  8
┌▓È4
  6
CONTINUOUS
 10
-23523.45675
 20
10416.9035
 11
-23526.79
 21
10416.9035
  0
LINE
  8
┌▓È4
  6
CONTINUOUS
 10
-23526.79
 20
10416.9035
 11
-23528.45675
 21
10418.57
  0
LINE
  8
┌▓È4
  6
CONTINUOUS
 10
-23528.45675
 20
10418.57
 11
-23530.1235
 21
10420.23675
  0
LINE
  8
┌▓È4
  6
CONTINUOUS
 10
-23530.1235
 20
10420.23675
 11
-23531.79
 21
10421.9035
  0
LINE
  8
┌▓È4
  6
CONTINUOUS
 10
-23531.79
 20
10421.9035
 11
-23533.45675
 21
10423.57
  0
LINE
  8
┌▓È4
  6
CONTINUOUS
 10
-23533.45675
 20
10423.57
 11
-23535.1235
 21
10425.23675
  0
LINE
  8
┌▓È4
  6
CONTINUOUS
 10
-23535.1235
 20
10425.23675
 11
-23535.1235
 21
10428.57
  0
LINE
  8
┌▓È4
  6
CONTINUOUS
 10
-23535.1235
 20
10428.57
 11
-23535.1235
 21
10430.23675
  0
ENDBLK
  0
BLOCK
  2
*GRP_0012
 70
    65
 10
0.0
 20
0.0
  0
LINE
  8
┌▓È4
  6
CONTINUOUS
 10
-23535.1235
 20
10763.57
 11
-23535.1235
 21
10765.23675
  0
LINE
  8
┌▓È4
  6
CONTINUOUS
 10
-23535.1235
 20
10765.23675
 11
-23535.1235
 21
10768.57
  0
LINE
  8
┌▓È4
  6
CONTINUOUS
 10
-23535.1235
 20
10768.57
 11
-23533.45675
 21
10770.23675
  0
LINE
  8
┌▓È4
  6
CONTINUOUS
 10
-23533.45675
 20
10770.23675
 11
-23531.79
 21
10771.9035
  0
LINE
  8
┌▓È4
  6
CONTINUOUS
 10
-23531.79
 20
10771.9035
 11
-23530.1235
 21
10773.57
  0
LINE
  8
┌▓È4
  6
CONTINUOUS
 10
-23530.1235
 20
10773.57
 11
-23528.45675
 21
10775.23675
  0
LINE
  8
┌▓È4
  6
CONTINUOUS
 10
-23528.45675
 20
10775.23675
 11
-23526.79
 21
10776.9035
  0
LINE
  8
┌▓È4
  6
CONTINUOUS
 10
-23526.79
 20
10776.9035
 11
-23523.45675
 21
10776.9035
  0
LINE
  8
┌▓È4
  6
CONTINUOUS
 10
-23523.45675
 20
10776.9035
 11
-23521.79
 21
10776.9035
  0
LINE
  8
┌▓È4
  6
CONTINUOUS
 10
-23521.79
 20
10776.9035
 11
-23520.1235
 21
10776.9035
  0
LINE
  8
┌▓È4
  6
CONTINUOUS
 10
-23520.1235
 20
10776.9035
 11
-23516.79
 21
10776.9035
  0
LINE
  8
┌▓È4
  6
CONTINUOUS
 10
-23516.79
 20
10776.9035
 11
-23515.1235
 21
10775.23675
  0
LINE
  8
┌▓È4
  6
CONTINUOUS
 10
-23515.1235
 20
10775.23675
 11
-23513.45675
 21
10773.57
  0
LINE
  8
┌▓È4
  6
CONTINUOUS
 10
-23513.45675
 20
10773.57
 11
-23511.79
 21
10771.9035
  0
LINE
  8
┌▓È4
  6
CONTINUOUS
 10
-23511.79
 20
10771.9035
 11
-23510.1235
 21
10770.23675
  0
LINE
  8
┌▓È4
  6
CONTINUOUS
 10
-23510.1235
 20
10770.23675
 11
-23508.45675
 21
10768.57
  0
LINE
  8
┌▓È4
  6
CONTINUOUS
 10
-23508.45675
 20
10768.57
 11
-23508.45675
 21
10765.23675
  0
LINE
  8
┌▓È4
  6
CONTINUOUS
 10
-23508.45675
 20
10765.23675
 11
-23508.45675
 21
10763.57
  0
LINE
  8
┌▓È4
  6
CONTINUOUS
 10
-23508.45675
 20
10763.57
 11
-23508.45675
 21
10761.9035
  0
LINE
  8
┌▓È4
  6
CONTINUOUS
 10
-23508.45675
 20
10761.9035
 11
-23508.45675
 21
10758.57
  0
LINE
  8
┌▓È4
  6
CONTINUOUS
 10
-23508.45675
 20
10758.57
 11
-23510.1235
 21
10756.9035
  0
LINE
  8
┌▓È4
  6
CONTINUOUS
 10
-23510.1235
 20
10756.9035
 11
-23511.79
 21
10755.23675
  0
LINE
  8
┌▓È4
  6
CONTINUOUS
 10
-23511.79
 20
10755.23675
 11
-23513.45675
 21
10753.57
  0
LINE
  8
┌▓È4
  6
CONTINUOUS
 10
-23513.45675
 20
10753.57
 11
-23515.1235
 21
10751.9035
  0
LINE
  8
┌▓È4
  6
CONTINUOUS
 10
-23515.1235
 20
10751.9035
 11
-23516.79
 21
10750.23675
  0
LINE
  8
┌▓È4
  6
CONTINUOUS
 10
-23516.79
 20
10750.23675
 11
-23520.1235
 21
10750.23675
  0
LINE
  8
┌▓È4
  6
CONTINUOUS
 10
-23520.1235
 20
10750.23675
 11
-23521.79
 21
10750.23675
  0
LINE
  8
┌▓È4
  6
CONTINUOUS
 10
-23521.79
 20
10750.23675
 11
-23523.45675
 21
10750.23675
  0
LINE
  8
┌▓È4
  6
CONTINUOUS
 10
-23523.45675
 20
10750.23675
 11
-23526.79
 21
10750.23675
  0
LINE
  8
┌▓È4
  6
CONTINUOUS
 10
-23526.79
 20
10750.23675
 11
-23528.45675
 21
10751.9035
  0
LINE
  8
┌▓È4
  6
CONTINUOUS
 10
-23528.45675
 20
10751.9035
 11
-23530.1235
 21
10753.57
  0
LINE
  8
┌▓È4
  6
CONTINUOUS
 10
-23530.1235
 20
10753.57
 11
-23531.79
 21
10755.23675
  0
LINE
  8
┌▓È4
  6
CONTINUOUS
 10
-23531.79
 20
10755.23675
 11
-23533.45675
 21
10756.9035
  0
LINE
  8
┌▓È4
  6
CONTINUOUS
 10
-23533.45675
 20
10756.9035
 11
-23535.1235
 21
10758.57
  0
LINE
  8
┌▓È4
  6
CONTINUOUS
 10
-23535.1235
 20
10758.57
 11
-23535.1235
 21
10761.9035
  0
LINE
  8
┌▓È4
  6
CONTINUOUS
 10
-23535.1235
 20
10761.9035
 11
-23535.1235
 21
10763.57
  0
ENDBLK
  0
BLOCK
  2
*GRP_0013
 70
    65
 10
0.0
 20
0.0
  0
LINE
  8
┌▓È4
  6
CONTINUOUS
 10
-23535.1235
 20
11176.9035
 11
-23535.1235
 21
11178.57
  0
LINE
  8
┌▓È4
  6
CONTINUOUS
 10
-23535.1235
 20
11178.57
 11
-23535.1235
 21
11181.9035
  0
LINE
  8
┌▓È4
  6
CONTINUOUS
 10
-23535.1235
 20
11181.9035
 11
-23533.45675
 21
11183.57
  0
LINE
  8
┌▓È4
  6
CONTINUOUS
 10
-23533.45675
 20
11183.57
 11
-23531.79
 21
11185.23675
  0
LINE
  8
┌▓È4
  6
CONTINUOUS
 10
-23531.79
 20
11185.23675
 11
-23530.1235
 21
11186.9035
  0
LINE
  8
┌▓È4
  6
CONTINUOUS
 10
-23530.1235
 20
11186.9035
 11
-23528.45675
 21
11188.57
  0
LINE
  8
┌▓È4
  6
CONTINUOUS
 10
-23528.45675
 20
11188.57
 11
-23526.79
 21
11190.23675
  0
LINE
  8
┌▓È4
  6
CONTINUOUS
 10
-23526.79
 20
11190.23675
 11
-23523.45675
 21
11190.23675
  0
LINE
  8
┌▓È4
  6
CONTINUOUS
 10
-23523.45675
 20
11190.23675
 11
-23521.79
 21
11190.23675
  0
LINE
  8
┌▓È4
  6
CONTINUOUS
 10
-23521.79
 20
11190.23675
 11
-23520.1235
 21
11190.23675
  0
LINE
  8
┌▓È4
  6
CONTINUOUS
 10
-23520.1235
 20
11190.23675
 11
-23516.79
 21
11190.23675
  0
LINE
  8
┌▓È4
  6
CONTINUOUS
 10
-23516.79
 20
11190.23675
 11
-23515.1235
 21
11188.57
  0
LINE
  8
┌▓È4
  6
CONTINUOUS
 10
-23515.1235
 20
11188.57
 11
-23513.45675
 21
11186.9035
  0
LINE
  8
┌▓È4
  6
CONTINUOUS
 10
-23513.45675
 20
11186.9035
 11
-23511.79
 21
11185.23675
  0
LINE
  8
┌▓È4
  6
CONTINUOUS
 10
-23511.79
 20
11185.23675
 11
-23510.1235
 21
11183.57
  0
LINE
  8
┌▓È4
  6
CONTINUOUS
 10
-23510.1235
 20
11183.57
 11
-23508.45675
 21
11181.9035
  0
LINE
  8
┌▓È4
  6
CONTINUOUS
 10
-23508.45675
 20
11181.9035
 11
-23508.45675
 21
11178.57
  0
LINE
  8
┌▓È4
  6
CONTINUOUS
 10
-23508.45675
 20
11178.57
 11
-23508.45675
 21
11176.9035
  0
LINE
  8
┌▓È4
  6
CONTINUOUS
 10
-23508.45675
 20
11176.9035
 11
-23508.45675
 21
11175.23675
  0
LINE
  8
┌▓È4
  6
CONTINUOUS
 10
-23508.45675
 20
11175.23675
 11
-23508.45675
 21
11171.9035
  0
LINE
  8
┌▓È4
  6
CONTINUOUS
 10
-23508.45675
 20
11171.9035
 11
-23510.1235
 21
11170.23675
  0
LINE
  8
┌▓È4
  6
CONTINUOUS
 10
-23510.1235
 20
11170.23675
 11
-23511.79
 21
11168.57
  0
LINE
  8
┌▓È4
  6
CONTINUOUS
 10
-23511.79
 20
11168.57
 11
-23513.45675
 21
11166.9035
  0
LINE
  8
┌▓È4
  6
CONTINUOUS
 10
-23513.45675
 20
11166.9035
 11
-23515.1235
 21
11165.23675
  0
LINE
  8
┌▓È4
  6
CONTINUOUS
 10
-23515.1235
 20
11165.23675
 11
-23516.79
 21
11163.57
  0
LINE
  8
┌▓È4
  6
CONTINUOUS
 10
-23516.79
 20
11163.57
 11
-23520.1235
 21
11163.57
  0
LINE
  8
┌▓È4
  6
CONTINUOUS
 10
-23520.1235
 20
11163.57
 11
-23521.79
 21
11163.57
  0
LINE
  8
┌▓È4
  6
CONTINUOUS
 10
-23521.79
 20
11163.57
 11
-23523.45675
 21
11163.57
  0
LINE
  8
┌▓È4
  6
CONTINUOUS
 10
-23523.45675
 20
11163.57
 11
-23526.79
 21
11163.57
  0
LINE
  8
┌▓È4
  6
CONTINUOUS
 10
-23526.79
 20
11163.57
 11
-23528.45675
 21
11165.23675
  0
LINE
  8
┌▓È4
  6
CONTINUOUS
 10
-23528.45675
 20
11165.23675
 11
-23530.1235
 21
11166.9035
  0
LINE
  8
┌▓È4
  6
CONTINUOUS
 10
-23530.1235
 20
11166.9035
 11
-23531.79
 21
11168.57
  0
LINE
  8
┌▓È4
  6
CONTINUOUS
 10
-23531.79
 20
11168.57
 11
-23533.45675
 21
11170.23675
  0
LINE
  8
┌▓È4
  6
CONTINUOUS
 10
-23533.45675
 20
11170.23675
 11
-23535.1235
 21
11171.9035
  0
LINE
  8
┌▓È4
  6
CONTINUOUS
 10
-23535.1235
 20
11171.9035
 11
-23535.1235
 21
11175.23675
  0
LINE
  8
┌▓È4
  6
CONTINUOUS
 10
-23535.1235
 20
11175.23675
 11
-23535.1235
 21
11176.9035
  0
ENDBLK
  0
BLOCK
  2
*GRP_0014
 70
    65
 10
0.0
 20
0.0
  0
LINE
  8
┌▓È4
  6
CONTINUOUS
 10
-23535.1235
 20
11010.23675
 11
-23535.1235
 21
11011.9035
  0
LINE
  8
┌▓È4
  6
CONTINUOUS
 10
-23535.1235
 20
11011.9035
 11
-23535.1235
 21
11015.23675
  0
LINE
  8
┌▓È4
  6
CONTINUOUS
 10
-23535.1235
 20
11015.23675
 11
-23533.45675
 21
11016.9035
  0
LINE
  8
┌▓È4
  6
CONTINUOUS
 10
-23533.45675
 20
11016.9035
 11
-23531.79
 21
11018.57
  0
LINE
  8
┌▓È4
  6
CONTINUOUS
 10
-23531.79
 20
11018.57
 11
-23530.1235
 21
11020.23675
  0
LINE
  8
┌▓È4
  6
CONTINUOUS
 10
-23530.1235
 20
11020.23675
 11
-23528.45675
 21
11021.9035
  0
LINE
  8
┌▓È4
  6
CONTINUOUS
 10
-23528.45675
 20
11021.9035
 11
-23526.79
 21
11023.57
  0
LINE
  8
┌▓È4
  6
CONTINUOUS
 10
-23526.79
 20
11023.57
 11
-23523.45675
 21
11023.57
  0
LINE
  8
┌▓È4
  6
CONTINUOUS
 10
-23523.45675
 20
11023.57
 11
-23521.79
 21
11023.57
  0
LINE
  8
┌▓È4
  6
CONTINUOUS
 10
-23521.79
 20
11023.57
 11
-23520.1235
 21
11023.57
  0
LINE
  8
┌▓È4
  6
CONTINUOUS
 10
-23520.1235
 20
11023.57
 11
-23516.79
 21
11023.57
  0
LINE
  8
┌▓È4
  6
CONTINUOUS
 10
-23516.79
 20
11023.57
 11
-23515.1235
 21
11021.9035
  0
LINE
  8
┌▓È4
  6
CONTINUOUS
 10
-23515.1235
 20
11021.9035
 11
-23513.45675
 21
11020.23675
  0
LINE
  8
┌▓È4
  6
CONTINUOUS
 10
-23513.45675
 20
11020.23675
 11
-23511.79
 21
11018.57
  0
LINE
  8
┌▓È4
  6
CONTINUOUS
 10
-23511.79
 20
11018.57
 11
-23510.1235
 21
11016.9035
  0
LINE
  8
┌▓È4
  6
CONTINUOUS
 10
-23510.1235
 20
11016.9035
 11
-23508.45675
 21
11015.23675
  0
LINE
  8
┌▓È4
  6
CONTINUOUS
 10
-23508.45675
 20
11015.23675
 11
-23508.45675
 21
11011.9035
  0
LINE
  8
┌▓È4
  6
CONTINUOUS
 10
-23508.45675
 20
11011.9035
 11
-23508.45675
 21
11010.23675
  0
LINE
  8
┌▓È4
  6
CONTINUOUS
 10
-23508.45675
 20
11010.23675
 11
-23508.45675
 21
11008.57
  0
LINE
  8
┌▓È4
  6
CONTINUOUS
 10
-23508.45675
 20
11008.57
 11
-23508.45675
 21
11005.23675
  0
LINE
  8
┌▓È4
  6
CONTINUOUS
 10
-23508.45675
 20
11005.23675
 11
-23510.1235
 21
11003.57
  0
LINE
  8
┌▓È4
  6
CONTINUOUS
 10
-23510.1235
 20
11003.57
 11
-23511.79
 21
11001.9035
  0
LINE
  8
┌▓È4
  6
CONTINUOUS
 10
-23511.79
 20
11001.9035
 11
-23513.45675
 21
11000.23675
  0
LINE
  8
┌▓È4
  6
CONTINUOUS
 10
-23513.45675
 20
11000.23675
 11
-23515.1235
 21
10998.57
  0
LINE
  8
┌▓È4
  6
CONTINUOUS
 10
-23515.1235
 20
10998.57
 11
-23516.79
 21
10996.9035
  0
LINE
  8
┌▓È4
  6
CONTINUOUS
 10
-23516.79
 20
10996.9035
 11
-23520.1235
 21
10996.9035
  0
LINE
  8
┌▓È4
  6
CONTINUOUS
 10
-23520.1235
 20
10996.9035
 11
-23521.79
 21
10996.9035
  0
LINE
  8
┌▓È4
  6
CONTINUOUS
 10
-23521.79
 20
10996.9035
 11
-23523.45675
 21
10996.9035
  0
LINE
  8
┌▓È4
  6
CONTINUOUS
 10
-23523.45675
 20
10996.9035
 11
-23526.79
 21
10996.9035
  0
LINE
  8
┌▓È4
  6
CONTINUOUS
 10
-23526.79
 20
10996.9035
 11
-23528.45675
 21
10998.57
  0
LINE
  8
┌▓È4
  6
CONTINUOUS
 10
-23528.45675
 20
10998.57
 11
-23530.1235
 21
11000.23675
  0
LINE
  8
┌▓È4
  6
CONTINUOUS
 10
-23530.1235
 20
11000.23675
 11
-23531.79
 21
11001.9035
  0
LINE
  8
┌▓È4
  6
CONTINUOUS
 10
-23531.79
 20
11001.9035
 11
-23533.45675
 21
11003.57
  0
LINE
  8
┌▓È4
  6
CONTINUOUS
 10
-23533.45675
 20
11003.57
 11
-23535.1235
 21
11005.23675
  0
LINE
  8
┌▓È4
  6
CONTINUOUS
 10
-23535.1235
 20
11005.23675
 11
-23535.1235
 21
11008.57
  0
LINE
  8
┌▓È4
  6
CONTINUOUS
 10
-23535.1235
 20
11008.57
 11
-23535.1235
 21
11010.23675
  0
ENDBLK
  0
BLOCK
  2
*GRP_0015
 70
    65
 10
0.0
 20
0.0
  0
LINE
  8
┌▓È4
  6
CONTINUOUS
 10
-23535.1235
 20
11343.57
 11
-23535.1235
 21
11345.23675
  0
LINE
  8
┌▓È4
  6
CONTINUOUS
 10
-23535.1235
 20
11345.23675
 11
-23535.1235
 21
11348.57
  0
LINE
  8
┌▓È4
  6
CONTINUOUS
 10
-23535.1235
 20
11348.57
 11
-23533.45675
 21
11350.23675
  0
LINE
  8
┌▓È4
  6
CONTINUOUS
 10
-23533.45675
 20
11350.23675
 11
-23531.79
 21
11351.9035
  0
LINE
  8
┌▓È4
  6
CONTINUOUS
 10
-23531.79
 20
11351.9035
 11
-23530.1235
 21
11353.57
  0
LINE
  8
┌▓È4
  6
CONTINUOUS
 10
-23530.1235
 20
11353.57
 11
-23528.45675
 21
11355.23675
  0
LINE
  8
┌▓È4
  6
CONTINUOUS
 10
-23528.45675
 20
11355.23675
 11
-23526.79
 21
11356.9035
  0
LINE
  8
┌▓È4
  6
CONTINUOUS
 10
-23526.79
 20
11356.9035
 11
-23523.45675
 21
11356.9035
  0
LINE
  8
┌▓È4
  6
CONTINUOUS
 10
-23523.45675
 20
11356.9035
 11
-23521.79
 21
11356.9035
  0
LINE
  8
┌▓È4
  6
CONTINUOUS
 10
-23521.79
 20
11356.9035
 11
-23520.1235
 21
11356.9035
  0
LINE
  8
┌▓È4
  6
CONTINUOUS
 10
-23520.1235
 20
11356.9035
 11
-23516.79
 21
11356.9035
  0
LINE
  8
┌▓È4
  6
CONTINUOUS
 10
-23516.79
 20
11356.9035
 11
-23515.1235
 21
11355.23675
  0
LINE
  8
┌▓È4
  6
CONTINUOUS
 10
-23515.1235
 20
11355.23675
 11
-23513.45675
 21
11353.57
  0
LINE
  8
┌▓È4
  6
CONTINUOUS
 10
-23513.45675
 20
11353.57
 11
-23511.79
 21
11351.9035
  0
LINE
  8
┌▓È4
  6
CONTINUOUS
 10
-23511.79
 20
11351.9035
 11
-23510.1235
 21
11350.23675
  0
LINE
  8
┌▓È4
  6
CONTINUOUS
 10
-23510.1235
 20
11350.23675
 11
-23508.45675
 21
11348.57
  0
LINE
  8
┌▓È4
  6
CONTINUOUS
 10
-23508.45675
 20
11348.57
 11
-23508.45675
 21
11345.23675
  0
LINE
  8
┌▓È4
  6
CONTINUOUS
 10
-23508.45675
 20
11345.23675
 11
-23508.45675
 21
11343.57
  0
LINE
  8
┌▓È4
  6
CONTINUOUS
 10
-23508.45675
 20
11343.57
 11
-23508.45675
 21
11341.9035
  0
LINE
  8
┌▓È4
  6
CONTINUOUS
 10
-23508.45675
 20
11341.9035
 11
-23508.45675
 21
11338.57
  0
LINE
  8
┌▓È4
  6
CONTINUOUS
 10
-23508.45675
 20
11338.57
 11
-23510.1235
 21
11336.9035
  0
LINE
  8
┌▓È4
  6
CONTINUOUS
 10
-23510.1235
 20
11336.9035
 11
-23511.79
 21
11335.23675
  0
LINE
  8
┌▓È4
  6
CONTINUOUS
 10
-23511.79
 20
11335.23675
 11
-23513.45675
 21
11333.57
  0
LINE
  8
┌▓È4
  6
CONTINUOUS
 10
-23513.45675
 20
11333.57
 11
-23515.1235
 21
11331.9035
  0
LINE
  8
┌▓È4
  6
CONTINUOUS
 10
-23515.1235
 20
11331.9035
 11
-23516.79
 21
11330.23675
  0
LINE
  8
┌▓È4
  6
CONTINUOUS
 10
-23516.79
 20
11330.23675
 11
-23520.1235
 21
11330.23675
  0
LINE
  8
┌▓È4
  6
CONTINUOUS
 10
-23520.1235
 20
11330.23675
 11
-23521.79
 21
11330.23675
  0
LINE
  8
┌▓È4
  6
CONTINUOUS
 10
-23521.79
 20
11330.23675
 11
-23523.45675
 21
11330.23675
  0
LINE
  8
┌▓È4
  6
CONTINUOUS
 10
-23523.45675
 20
11330.23675
 11
-23526.79
 21
11330.23675
  0
LINE
  8
┌▓È4
  6
CONTINUOUS
 10
-23526.79
 20
11330.23675
 11
-23528.45675
 21
11331.9035
  0
LINE
  8
┌▓È4
  6
CONTINUOUS
 10
-23528.45675
 20
11331.9035
 11
-23530.1235
 21
11333.57
  0
LINE
  8
┌▓È4
  6
CONTINUOUS
 10
-23530.1235
 20
11333.57
 11
-23531.79
 21
11335.23675
  0
LINE
  8
┌▓È4
  6
CONTINUOUS
 10
-23531.79
 20
11335.23675
 11
-23533.45675
 21
11336.9035
  0
LINE
  8
┌▓È4
  6
CONTINUOUS
 10
-23533.45675
 20
11336.9035
 11
-23535.1235
 21
11338.57
  0
LINE
  8
┌▓È4
  6
CONTINUOUS
 10
-23535.1235
 20
11338.57
 11
-23535.1235
 21
11341.9035
  0
LINE
  8
┌▓È4
  6
CONTINUOUS
 10
-23535.1235
 20
11341.9035
 11
-23535.1235
 21
11343.57
  0
ENDBLK
  0
BLOCK
  2
*GRP_0016
 70
    65
 10
0.0
 20
0.0
  0
LINE
  8
┌▓È4
  6
CONTINUOUS
 10
-26038.457
 20
7340.237
 11
-26038.457
 21
7341.9035
  0
LINE
  8
┌▓È4
  6
CONTINUOUS
 10
-26038.457
 20
7341.9035
 11
-26038.457
 21
7345.237
  0
LINE
  8
┌▓È4
  6
CONTINUOUS
 10
-26038.457
 20
7345.237
 11
-26040.12375
 21
7346.9035
  0
LINE
  8
┌▓È4
  6
CONTINUOUS
 10
-26040.12375
 20
7346.9035
 11
-26041.7905
 21
7348.57025
  0
LINE
  8
┌▓È4
  6
CONTINUOUS
 10
-26041.7905
 20
7348.57025
 11
-26043.457
 21
7350.237
  0
LINE
  8
┌▓È4
  6
CONTINUOUS
 10
-26043.457
 20
7350.237
 11
-26045.12375
 21
7351.9035
  0
LINE
  8
┌▓È4
  6
CONTINUOUS
 10
-26045.12375
 20
7351.9035
 11
-26046.7905
 21
7353.57025
  0
LINE
  8
┌▓È4
  6
CONTINUOUS
 10
-26046.7905
 20
7353.57025
 11
-26050.12375
 21
7353.57025
  0
LINE
  8
┌▓È4
  6
CONTINUOUS
 10
-26050.12375
 20
7353.57025
 11
-26051.7905
 21
7353.57025
  0
LINE
  8
┌▓È4
  6
CONTINUOUS
 10
-26051.7905
 20
7353.57025
 11
-26053.457
 21
7353.57025
  0
LINE
  8
┌▓È4
  6
CONTINUOUS
 10
-26053.457
 20
7353.57025
 11
-26056.7905
 21
7353.57025
  0
LINE
  8
┌▓È4
  6
CONTINUOUS
 10
-26056.7905
 20
7353.57025
 11
-26058.457
 21
7351.9035
  0
LINE
  8
┌▓È4
  6
CONTINUOUS
 10
-26058.457
 20
7351.9035
 11
-26060.12375
 21
7350.237
  0
LINE
  8
┌▓È4
  6
CONTINUOUS
 10
-26060.12375
 20
7350.237
 11
-26061.7905
 21
7348.57025
  0
LINE
  8
┌▓È4
  6
CONTINUOUS
 10
-26061.7905
 20
7348.57025
 11
-26063.457
 21
7346.9035
  0
LINE
  8
┌▓È4
  6
CONTINUOUS
 10
-26063.457
 20
7346.9035
 11
-26065.12375
 21
7345.237
  0
LINE
  8
┌▓È4
  6
CONTINUOUS
 10
-26065.12375
 20
7345.237
 11
-26065.12375
 21
7341.9035
  0
LINE
  8
┌▓È4
  6
CONTINUOUS
 10
-26065.12375
 20
7341.9035
 11
-26065.12375
 21
7340.237
  0
LINE
  8
┌▓È4
  6
CONTINUOUS
 10
-26065.12375
 20
7340.237
 11
-26065.12375
 21
7338.57025
  0
LINE
  8
┌▓È4
  6
CONTINUOUS
 10
-26065.12375
 20
7338.57025
 11
-26065.12375
 21
7335.237
  0
LINE
  8
┌▓È4
  6
CONTINUOUS
 10
-26065.12375
 20
7335.237
 11
-26063.457
 21
7333.57025
  0
LINE
  8
┌▓È4
  6
CONTINUOUS
 10
-26063.457
 20
7333.57025
 11
-26061.7905
 21
7331.9035
  0
LINE
  8
┌▓È4
  6
CONTINUOUS
 10
-26061.7905
 20
7331.9035
 11
-26060.12375
 21
7330.237
  0
LINE
  8
┌▓È4
  6
CONTINUOUS
 10
-26060.12375
 20
7330.237
 11
-26058.457
 21
7328.57025
  0
LINE
  8
┌▓È4
  6
CONTINUOUS
 10
-26058.457
 20
7328.57025
 11
-26056.7905
 21
7326.9035
  0
LINE
  8
┌▓È4
  6
CONTINUOUS
 10
-26056.7905
 20
7326.9035
 11
-26053.457
 21
7326.9035
  0
LINE
  8
┌▓È4
  6
CONTINUOUS
 10
-26053.457
 20
7326.9035
 11
-26051.7905
 21
7326.9035
  0
LINE
  8
┌▓È4
  6
CONTINUOUS
 10
-26051.7905
 20
7326.9035
 11
-26050.12375
 21
7326.9035
  0
LINE
  8
┌▓È4
  6
CONTINUOUS
 10
-26050.12375
 20
7326.9035
 11
-26046.7905
 21
7326.9035
  0
LINE
  8
┌▓È4
  6
CONTINUOUS
 10
-26046.7905
 20
7326.9035
 11
-26045.12375
 21
7328.57025
  0
LINE
  8
┌▓È4
  6
CONTINUOUS
 10
-26045.12375
 20
7328.57025
 11
-26043.457
 21
7330.237
  0
LINE
  8
┌▓È4
  6
CONTINUOUS
 10
-26043.457
 20
7330.237
 11
-26041.7905
 21
7331.9035
  0
LINE
  8
┌▓È4
  6
CONTINUOUS
 10
-26041.7905
 20
7331.9035
 11
-26040.12375
 21
7333.57025
  0
LINE
  8
┌▓È4
  6
CONTINUOUS
 10
-26040.12375
 20
7333.57025
 11
-26038.457
 21
7335.237
  0
LINE
  8
┌▓È4
  6
CONTINUOUS
 10
-26038.457
 20
7335.237
 11
-26038.457
 21
7338.57025
  0
LINE
  8
┌▓È4
  6
CONTINUOUS
 10
-26038.457
 20
7338.57025
 11
-26038.457
 21
7340.237
  0
ENDBLK
  0
BLOCK
  2
*GRP_0017
 70
    65
 10
0.0
 20
0.0
  0
LINE
  8
┌▓È4
  6
CONTINUOUS
 10
-26038.457
 20
7173.57025
 11
-26038.457
 21
7175.237
  0
LINE
  8
┌▓È4
  6
CONTINUOUS
 10
-26038.457
 20
7175.237
 11
-26038.457
 21
7178.57025
  0
LINE
  8
┌▓È4
  6
CONTINUOUS
 10
-26038.457
 20
7178.57025
 11
-26040.12375
 21
7180.237
  0
LINE
  8
┌▓È4
  6
CONTINUOUS
 10
-26040.12375
 20
7180.237
 11
-26041.7905
 21
7181.9035
  0
LINE
  8
┌▓È4
  6
CONTINUOUS
 10
-26041.7905
 20
7181.9035
 11
-26043.457
 21
7183.57025
  0
LINE
  8
┌▓È4
  6
CONTINUOUS
 10
-26043.457
 20
7183.57025
 11
-26045.12375
 21
7185.237
  0
LINE
  8
┌▓È4
  6
CONTINUOUS
 10
-26045.12375
 20
7185.237
 11
-26046.7905
 21
7186.9035
  0
LINE
  8
┌▓È4
  6
CONTINUOUS
 10
-26046.7905
 20
7186.9035
 11
-26050.12375
 21
7186.9035
  0
LINE
  8
┌▓È4
  6
CONTINUOUS
 10
-26050.12375
 20
7186.9035
 11
-26051.7905
 21
7186.9035
  0
LINE
  8
┌▓È4
  6
CONTINUOUS
 10
-26051.7905
 20
7186.9035
 11
-26053.457
 21
7186.9035
  0
LINE
  8
┌▓È4
  6
CONTINUOUS
 10
-26053.457
 20
7186.9035
 11
-26056.7905
 21
7186.9035
  0
LINE
  8
┌▓È4
  6
CONTINUOUS
 10
-26056.7905
 20
7186.9035
 11
-26058.457
 21
7185.237
  0
LINE
  8
┌▓È4
  6
CONTINUOUS
 10
-26058.457
 20
7185.237
 11
-26060.12375
 21
7183.57025
  0
LINE
  8
┌▓È4
  6
CONTINUOUS
 10
-26060.12375
 20
7183.57025
 11
-26061.7905
 21
7181.9035
  0
LINE
  8
┌▓È4
  6
CONTINUOUS
 10
-26061.7905
 20
7181.9035
 11
-26063.457
 21
7180.237
  0
LINE
  8
┌▓È4
  6
CONTINUOUS
 10
-26063.457
 20
7180.237
 11
-26065.12375
 21
7178.57025
  0
LINE
  8
┌▓È4
  6
CONTINUOUS
 10
-26065.12375
 20
7178.57025
 11
-26065.12375
 21
7175.237
  0
LINE
  8
┌▓È4
  6
CONTINUOUS
 10
-26065.12375
 20
7175.237
 11
-26065.12375
 21
7173.57025
  0
LINE
  8
┌▓È4
  6
CONTINUOUS
 10
-26065.12375
 20
7173.57025
 11
-26065.12375
 21
7171.9035
  0
LINE
  8
┌▓È4
  6
CONTINUOUS
 10
-26065.12375
 20
7171.9035
 11
-26065.12375
 21
7168.57025
  0
LINE
  8
┌▓È4
  6
CONTINUOUS
 10
-26065.12375
 20
7168.57025
 11
-26063.457
 21
7166.9035
  0
LINE
  8
┌▓È4
  6
CONTINUOUS
 10
-26063.457
 20
7166.9035
 11
-26061.7905
 21
7165.237
  0
LINE
  8
┌▓È4
  6
CONTINUOUS
 10
-26061.7905
 20
7165.237
 11
-26060.12375
 21
7163.57025
  0
LINE
  8
┌▓È4
  6
CONTINUOUS
 10
-26060.12375
 20
7163.57025
 11
-26058.457
 21
7161.9035
  0
LINE
  8
┌▓È4
  6
CONTINUOUS
 10
-26058.457
 20
7161.9035
 11
-26056.7905
 21
7160.237
  0
LINE
  8
┌▓È4
  6
CONTINUOUS
 10
-26056.7905
 20
7160.237
 11
-26053.457
 21
7160.237
  0
LINE
  8
┌▓È4
  6
CONTINUOUS
 10
-26053.457
 20
7160.237
 11
-26051.7905
 21
7160.237
  0
LINE
  8
┌▓È4
  6
CONTINUOUS
 10
-26051.7905
 20
7160.237
 11
-26050.12375
 21
7160.237
  0
LINE
  8
┌▓È4
  6
CONTINUOUS
 10
-26050.12375
 20
7160.237
 11
-26046.7905
 21
7160.237
  0
LINE
  8
┌▓È4
  6
CONTINUOUS
 10
-26046.7905
 20
7160.237
 11
-26045.12375
 21
7161.9035
  0
LINE
  8
┌▓È4
  6
CONTINUOUS
 10
-26045.12375
 20
7161.9035
 11
-26043.457
 21
7163.57025
  0
LINE
  8
┌▓È4
  6
CONTINUOUS
 10
-26043.457
 20
7163.57025
 11
-26041.7905
 21
7165.237
  0
LINE
  8
┌▓È4
  6
CONTINUOUS
 10
-26041.7905
 20
7165.237
 11
-26040.12375
 21
7166.9035
  0
LINE
  8
┌▓È4
  6
CONTINUOUS
 10
-26040.12375
 20
7166.9035
 11
-26038.457
 21
7168.57025
  0
LINE
  8
┌▓È4
  6
CONTINUOUS
 10
-26038.457
 20
7168.57025
 11
-26038.457
 21
7171.9035
  0
LINE
  8
┌▓È4
  6
CONTINUOUS
 10
-26038.457
 20
7171.9035
 11
-26038.457
 21
7173.57025
  0
ENDBLK
  0
BLOCK
  2
*GRP_0018
 70
    65
 10
0.0
 20
0.0
  0
LINE
  8
┌▓È4
  6
CONTINUOUS
 10
-26038.457
 20
7506.9035
 11
-26038.457
 21
7508.57025
  0
LINE
  8
┌▓È4
  6
CONTINUOUS
 10
-26038.457
 20
7508.57025
 11
-26038.457
 21
7511.9035
  0
LINE
  8
┌▓È4
  6
CONTINUOUS
 10
-26038.457
 20
7511.9035
 11
-26040.12375
 21
7513.57025
  0
LINE
  8
┌▓È4
  6
CONTINUOUS
 10
-26040.12375
 20
7513.57025
 11
-26041.7905
 21
7515.237
  0
LINE
  8
┌▓È4
  6
CONTINUOUS
 10
-26041.7905
 20
7515.237
 11
-26043.457
 21
7516.9035
  0
LINE
  8
┌▓È4
  6
CONTINUOUS
 10
-26043.457
 20
7516.9035
 11
-26045.12375
 21
7518.57025
  0
LINE
  8
┌▓È4
  6
CONTINUOUS
 10
-26045.12375
 20
7518.57025
 11
-26046.7905
 21
7520.237
  0
LINE
  8
┌▓È4
  6
CONTINUOUS
 10
-26046.7905
 20
7520.237
 11
-26050.12375
 21
7520.237
  0
LINE
  8
┌▓È4
  6
CONTINUOUS
 10
-26050.12375
 20
7520.237
 11
-26051.7905
 21
7520.237
  0
LINE
  8
┌▓È4
  6
CONTINUOUS
 10
-26051.7905
 20
7520.237
 11
-26053.457
 21
7520.237
  0
LINE
  8
┌▓È4
  6
CONTINUOUS
 10
-26053.457
 20
7520.237
 11
-26056.7905
 21
7520.237
  0
LINE
  8
┌▓È4
  6
CONTINUOUS
 10
-26056.7905
 20
7520.237
 11
-26058.457
 21
7518.57025
  0
LINE
  8
┌▓È4
  6
CONTINUOUS
 10
-26058.457
 20
7518.57025
 11
-26060.12375
 21
7516.9035
  0
LINE
  8
┌▓È4
  6
CONTINUOUS
 10
-26060.12375
 20
7516.9035
 11
-26061.7905
 21
7515.237
  0
LINE
  8
┌▓È4
  6
CONTINUOUS
 10
-26061.7905
 20
7515.237
 11
-26063.457
 21
7513.57025
  0
LINE
  8
┌▓È4
  6
CONTINUOUS
 10
-26063.457
 20
7513.57025
 11
-26065.12375
 21
7511.9035
  0
LINE
  8
┌▓È4
  6
CONTINUOUS
 10
-26065.12375
 20
7511.9035
 11
-26065.12375
 21
7508.57025
  0
LINE
  8
┌▓È4
  6
CONTINUOUS
 10
-26065.12375
 20
7508.57025
 11
-26065.12375
 21
7506.9035
  0
LINE
  8
┌▓È4
  6
CONTINUOUS
 10
-26065.12375
 20
7506.9035
 11
-26065.12375
 21
7505.237
  0
LINE
  8
┌▓È4
  6
CONTINUOUS
 10
-26065.12375
 20
7505.237
 11
-26065.12375
 21
7501.9035
  0
LINE
  8
┌▓È4
  6
CONTINUOUS
 10
-26065.12375
 20
7501.9035
 11
-26063.457
 21
7500.237
  0
LINE
  8
┌▓È4
  6
CONTINUOUS
 10
-26063.457
 20
7500.237
 11
-26061.7905
 21
7498.57025
  0
LINE
  8
┌▓È4
  6
CONTINUOUS
 10
-26061.7905
 20
7498.57025
 11
-26060.12375
 21
7496.9035
  0
LINE
  8
┌▓È4
  6
CONTINUOUS
 10
-26060.12375
 20
7496.9035
 11
-26058.457
 21
7495.237
  0
LINE
  8
┌▓È4
  6
CONTINUOUS
 10
-26058.457
 20
7495.237
 11
-26056.7905
 21
7493.57025
  0
LINE
  8
┌▓È4
  6
CONTINUOUS
 10
-26056.7905
 20
7493.57025
 11
-26053.457
 21
7493.57025
  0
LINE
  8
┌▓È4
  6
CONTINUOUS
 10
-26053.457
 20
7493.57025
 11
-26051.7905
 21
7493.57025
  0
LINE
  8
┌▓È4
  6
CONTINUOUS
 10
-26051.7905
 20
7493.57025
 11
-26050.12375
 21
7493.57025
  0
LINE
  8
┌▓È4
  6
CONTINUOUS
 10
-26050.12375
 20
7493.57025
 11
-26046.7905
 21
7493.57025
  0
LINE
  8
┌▓È4
  6
CONTINUOUS
 10
-26046.7905
 20
7493.57025
 11
-26045.12375
 21
7495.237
  0
LINE
  8
┌▓È4
  6
CONTINUOUS
 10
-26045.12375
 20
7495.237
 11
-26043.457
 21
7496.9035
  0
LINE
  8
┌▓È4
  6
CONTINUOUS
 10
-26043.457
 20
7496.9035
 11
-26041.7905
 21
7498.57025
  0
LINE
  8
┌▓È4
  6
CONTINUOUS
 10
-26041.7905
 20
7498.57025
 11
-26040.12375
 21
7500.237
  0
LINE
  8
┌▓È4
  6
CONTINUOUS
 10
-26040.12375
 20
7500.237
 11
-26038.457
 21
7501.9035
  0
LINE
  8
┌▓È4
  6
CONTINUOUS
 10
-26038.457
 20
7501.9035
 11
-26038.457
 21
7505.237
  0
LINE
  8
┌▓È4
  6
CONTINUOUS
 10
-26038.457
 20
7505.237
 11
-26038.457
 21
7506.9035
  0
ENDBLK
  0
BLOCK
  2
*GRP_0019
 70
    65
 10
0.0
 20
0.0
  0
LINE
  8
┌▓È4
  6
CONTINUOUS
 10
-26038.457
 20
9823.57025
 11
-26038.457
 21
9825.23675
  0
LINE
  8
┌▓È4
  6
CONTINUOUS
 10
-26038.457
 20
9825.23675
 11
-26038.457
 21
9828.57025
  0
LINE
  8
┌▓È4
  6
CONTINUOUS
 10
-26038.457
 20
9828.57025
 11
-26040.12375
 21
9830.23675
  0
LINE
  8
┌▓È4
  6
CONTINUOUS
 10
-26040.12375
 20
9830.23675
 11
-26041.7905
 21
9831.9035
  0
LINE
  8
┌▓È4
  6
CONTINUOUS
 10
-26041.7905
 20
9831.9035
 11
-26043.457
 21
9833.57025
  0
LINE
  8
┌▓È4
  6
CONTINUOUS
 10
-26043.457
 20
9833.57025
 11
-26045.12375
 21
9835.23675
  0
LINE
  8
┌▓È4
  6
CONTINUOUS
 10
-26045.12375
 20
9835.23675
 11
-26046.7905
 21
9836.9035
  0
LINE
  8
┌▓È4
  6
CONTINUOUS
 10
-26046.7905
 20
9836.9035
 11
-26050.12375
 21
9836.9035
  0
LINE
  8
┌▓È4
  6
CONTINUOUS
 10
-26050.12375
 20
9836.9035
 11
-26051.7905
 21
9836.9035
  0
LINE
  8
┌▓È4
  6
CONTINUOUS
 10
-26051.7905
 20
9836.9035
 11
-26053.457
 21
9836.9035
  0
LINE
  8
┌▓È4
  6
CONTINUOUS
 10
-26053.457
 20
9836.9035
 11
-26056.7905
 21
9836.9035
  0
LINE
  8
┌▓È4
  6
CONTINUOUS
 10
-26056.7905
 20
9836.9035
 11
-26058.457
 21
9835.23675
  0
LINE
  8
┌▓È4
  6
CONTINUOUS
 10
-26058.457
 20
9835.23675
 11
-26060.12375
 21
9833.57025
  0
LINE
  8
┌▓È4
  6
CONTINUOUS
 10
-26060.12375
 20
9833.57025
 11
-26061.7905
 21
9831.9035
  0
LINE
  8
┌▓È4
  6
CONTINUOUS
 10
-26061.7905
 20
9831.9035
 11
-26063.457
 21
9830.23675
  0
LINE
  8
┌▓È4
  6
CONTINUOUS
 10
-26063.457
 20
9830.23675
 11
-26065.12375
 21
9828.57025
  0
LINE
  8
┌▓È4
  6
CONTINUOUS
 10
-26065.12375
 20
9828.57025
 11
-26065.12375
 21
9825.23675
  0
LINE
  8
┌▓È4
  6
CONTINUOUS
 10
-26065.12375
 20
9825.23675
 11
-26065.12375
 21
9823.57025
  0
LINE
  8
┌▓È4
  6
CONTINUOUS
 10
-26065.12375
 20
9823.57025
 11
-26065.12375
 21
9821.9035
  0
LINE
  8
┌▓È4
  6
CONTINUOUS
 10
-26065.12375
 20
9821.9035
 11
-26065.12375
 21
9818.57025
  0
LINE
  8
┌▓È4
  6
CONTINUOUS
 10
-26065.12375
 20
9818.57025
 11
-26063.457
 21
9816.9035
  0
LINE
  8
┌▓È4
  6
CONTINUOUS
 10
-26063.457
 20
9816.9035
 11
-26061.7905
 21
9815.23675
  0
LINE
  8
┌▓È4
  6
CONTINUOUS
 10
-26061.7905
 20
9815.23675
 11
-26060.12375
 21
9813.57025
  0
LINE
  8
┌▓È4
  6
CONTINUOUS
 10
-26060.12375
 20
9813.57025
 11
-26058.457
 21
9811.9035
  0
LINE
  8
┌▓È4
  6
CONTINUOUS
 10
-26058.457
 20
9811.9035
 11
-26056.7905
 21
9810.23675
  0
LINE
  8
┌▓È4
  6
CONTINUOUS
 10
-26056.7905
 20
9810.23675
 11
-26053.457
 21
9810.23675
  0
LINE
  8
┌▓È4
  6
CONTINUOUS
 10
-26053.457
 20
9810.23675
 11
-26051.7905
 21
9810.23675
  0
LINE
  8
┌▓È4
  6
CONTINUOUS
 10
-26051.7905
 20
9810.23675
 11
-26050.12375
 21
9810.23675
  0
LINE
  8
┌▓È4
  6
CONTINUOUS
 10
-26050.12375
 20
9810.23675
 11
-26046.7905
 21
9810.23675
  0
LINE
  8
┌▓È4
  6
CONTINUOUS
 10
-26046.7905
 20
9810.23675
 11
-26045.12375
 21
9811.9035
  0
LINE
  8
┌▓È4
  6
CONTINUOUS
 10
-26045.12375
 20
9811.9035
 11
-26043.457
 21
9813.57025
  0
LINE
  8
┌▓È4
  6
CONTINUOUS
 10
-26043.457
 20
9813.57025
 11
-26041.7905
 21
9815.23675
  0
LINE
  8
┌▓È4
  6
CONTINUOUS
 10
-26041.7905
 20
9815.23675
 11
-26040.12375
 21
9816.9035
  0
LINE
  8
┌▓È4
  6
CONTINUOUS
 10
-26040.12375
 20
9816.9035
 11
-26038.457
 21
9818.57025
  0
LINE
  8
┌▓È4
  6
CONTINUOUS
 10
-26038.457
 20
9818.57025
 11
-26038.457
 21
9821.9035
  0
LINE
  8
┌▓È4
  6
CONTINUOUS
 10
-26038.457
 20
9821.9035
 11
-26038.457
 21
9823.57025
  0
ENDBLK
  0
BLOCK
  2
*GRP_0020
 70
    65
 10
0.0
 20
0.0
  0
LINE
  8
┌▓È4
  6
CONTINUOUS
 10
-26038.457
 20
9656.9035
 11
-26038.457
 21
9658.57025
  0
LINE
  8
┌▓È4
  6
CONTINUOUS
 10
-26038.457
 20
9658.57025
 11
-26038.457
 21
9661.9035
  0
LINE
  8
┌▓È4
  6
CONTINUOUS
 10
-26038.457
 20
9661.9035
 11
-26040.12375
 21
9663.57025
  0
LINE
  8
┌▓È4
  6
CONTINUOUS
 10
-26040.12375
 20
9663.57025
 11
-26041.7905
 21
9665.23675
  0
LINE
  8
┌▓È4
  6
CONTINUOUS
 10
-26041.7905
 20
9665.23675
 11
-26043.457
 21
9666.9035
  0
LINE
  8
┌▓È4
  6
CONTINUOUS
 10
-26043.457
 20
9666.9035
 11
-26045.12375
 21
9668.57025
  0
LINE
  8
┌▓È4
  6
CONTINUOUS
 10
-26045.12375
 20
9668.57025
 11
-26046.7905
 21
9670.23675
  0
LINE
  8
┌▓È4
  6
CONTINUOUS
 10
-26046.7905
 20
9670.23675
 11
-26050.12375
 21
9670.23675
  0
LINE
  8
┌▓È4
  6
CONTINUOUS
 10
-26050.12375
 20
9670.23675
 11
-26051.7905
 21
9670.23675
  0
LINE
  8
┌▓È4
  6
CONTINUOUS
 10
-26051.7905
 20
9670.23675
 11
-26053.457
 21
9670.23675
  0
LINE
  8
┌▓È4
  6
CONTINUOUS
 10
-26053.457
 20
9670.23675
 11
-26056.7905
 21
9670.23675
  0
LINE
  8
┌▓È4
  6
CONTINUOUS
 10
-26056.7905
 20
9670.23675
 11
-26058.457
 21
9668.57025
  0
LINE
  8
┌▓È4
  6
CONTINUOUS
 10
-26058.457
 20
9668.57025
 11
-26060.12375
 21
9666.9035
  0
LINE
  8
┌▓È4
  6
CONTINUOUS
 10
-26060.12375
 20
9666.9035
 11
-26061.7905
 21
9665.23675
  0
LINE
  8
┌▓È4
  6
CONTINUOUS
 10
-26061.7905
 20
9665.23675
 11
-26063.457
 21
9663.57025
  0
LINE
  8
┌▓È4
  6
CONTINUOUS
 10
-26063.457
 20
9663.57025
 11
-26065.12375
 21
9661.9035
  0
LINE
  8
┌▓È4
  6
CONTINUOUS
 10
-26065.12375
 20
9661.9035
 11
-26065.12375
 21
9658.57025
  0
LINE
  8
┌▓È4
  6
CONTINUOUS
 10
-26065.12375
 20
9658.57025
 11
-26065.12375
 21
9656.9035
  0
LINE
  8
┌▓È4
  6
CONTINUOUS
 10
-26065.12375
 20
9656.9035
 11
-26065.12375
 21
9655.23675
  0
LINE
  8
┌▓È4
  6
CONTINUOUS
 10
-26065.12375
 20
9655.23675
 11
-26065.12375
 21
9651.9035
  0
LINE
  8
┌▓È4
  6
CONTINUOUS
 10
-26065.12375
 20
9651.9035
 11
-26063.457
 21
9650.23675
  0
LINE
  8
┌▓È4
  6
CONTINUOUS
 10
-26063.457
 20
9650.23675
 11
-26061.7905
 21
9648.57025
  0
LINE
  8
┌▓È4
  6
CONTINUOUS
 10
-26061.7905
 20
9648.57025
 11
-26060.12375
 21
9646.9035
  0
LINE
  8
┌▓È4
  6
CONTINUOUS
 10
-26060.12375
 20
9646.9035
 11
-26058.457
 21
9645.23675
  0
LINE
  8
┌▓È4
  6
CONTINUOUS
 10
-26058.457
 20
9645.23675
 11
-26056.7905
 21
9643.57025
  0
LINE
  8
┌▓È4
  6
CONTINUOUS
 10
-26056.7905
 20
9643.57025
 11
-26053.457
 21
9643.57025
  0
LINE
  8
┌▓È4
  6
CONTINUOUS
 10
-26053.457
 20
9643.57025
 11
-26051.7905
 21
9643.57025
  0
LINE
  8
┌▓È4
  6
CONTINUOUS
 10
-26051.7905
 20
9643.57025
 11
-26050.12375
 21
9643.57025
  0
LINE
  8
┌▓È4
  6
CONTINUOUS
 10
-26050.12375
 20
9643.57025
 11
-26046.7905
 21
9643.57025
  0
LINE
  8
┌▓È4
  6
CONTINUOUS
 10
-26046.7905
 20
9643.57025
 11
-26045.12375
 21
9645.23675
  0
LINE
  8
┌▓È4
  6
CONTINUOUS
 10
-26045.12375
 20
9645.23675
 11
-26043.457
 21
9646.9035
  0
LINE
  8
┌▓È4
  6
CONTINUOUS
 10
-26043.457
 20
9646.9035
 11
-26041.7905
 21
9648.57025
  0
LINE
  8
┌▓È4
  6
CONTINUOUS
 10
-26041.7905
 20
9648.57025
 11
-26040.12375
 21
9650.23675
  0
LINE
  8
┌▓È4
  6
CONTINUOUS
 10
-26040.12375
 20
9650.23675
 11
-26038.457
 21
9651.9035
  0
LINE
  8
┌▓È4
  6
CONTINUOUS
 10
-26038.457
 20
9651.9035
 11
-26038.457
 21
9655.23675
  0
LINE
  8
┌▓È4
  6
CONTINUOUS
 10
-26038.457
 20
9655.23675
 11
-26038.457
 21
9656.9035
  0
ENDBLK
  0
BLOCK
  2
*GRP_0021
 70
    65
 10
0.0
 20
0.0
  0
LINE
  8
┌▓È4
  6
CONTINUOUS
 10
-26038.457
 20
9990.23675
 11
-26038.457
 21
9991.9035
  0
LINE
  8
┌▓È4
  6
CONTINUOUS
 10
-26038.457
 20
9991.9035
 11
-26038.457
 21
9995.23675
  0
LINE
  8
┌▓È4
  6
CONTINUOUS
 10
-26038.457
 20
9995.23675
 11
-26040.12375
 21
9996.9035
  0
LINE
  8
┌▓È4
  6
CONTINUOUS
 10
-26040.12375
 20
9996.9035
 11
-26041.7905
 21
9998.57025
  0
LINE
  8
┌▓È4
  6
CONTINUOUS
 10
-26041.7905
 20
9998.57025
 11
-26043.457
 21
10000.23675
  0
LINE
  8
┌▓È4
  6
CONTINUOUS
 10
-26043.457
 20
10000.23675
 11
-26045.12375
 21
10001.9035
  0
LINE
  8
┌▓È4
  6
CONTINUOUS
 10
-26045.12375
 20
10001.9035
 11
-26046.7905
 21
10003.57025
  0
LINE
  8
┌▓È4
  6
CONTINUOUS
 10
-26046.7905
 20
10003.57025
 11
-26050.12375
 21
10003.57025
  0
LINE
  8
┌▓È4
  6
CONTINUOUS
 10
-26050.12375
 20
10003.57025
 11
-26051.7905
 21
10003.57025
  0
LINE
  8
┌▓È4
  6
CONTINUOUS
 10
-26051.7905
 20
10003.57025
 11
-26053.457
 21
10003.57025
  0
LINE
  8
┌▓È4
  6
CONTINUOUS
 10
-26053.457
 20
10003.57025
 11
-26056.7905
 21
10003.57025
  0
LINE
  8
┌▓È4
  6
CONTINUOUS
 10
-26056.7905
 20
10003.57025
 11
-26058.457
 21
10001.9035
  0
LINE
  8
┌▓È4
  6
CONTINUOUS
 10
-26058.457
 20
10001.9035
 11
-26060.12375
 21
10000.23675
  0
LINE
  8
┌▓È4
  6
CONTINUOUS
 10
-26060.12375
 20
10000.23675
 11
-26061.7905
 21
9998.57025
  0
LINE
  8
┌▓È4
  6
CONTINUOUS
 10
-26061.7905
 20
9998.57025
 11
-26063.457
 21
9996.9035
  0
LINE
  8
┌▓È4
  6
CONTINUOUS
 10
-26063.457
 20
9996.9035
 11
-26065.12375
 21
9995.23675
  0
LINE
  8
┌▓È4
  6
CONTINUOUS
 10
-26065.12375
 20
9995.23675
 11
-26065.12375
 21
9991.9035
  0
LINE
  8
┌▓È4
  6
CONTINUOUS
 10
-26065.12375
 20
9991.9035
 11
-26065.12375
 21
9990.23675
  0
LINE
  8
┌▓È4
  6
CONTINUOUS
 10
-26065.12375
 20
9990.23675
 11
-26065.12375
 21
9988.57025
  0
LINE
  8
┌▓È4
  6
CONTINUOUS
 10
-26065.12375
 20
9988.57025
 11
-26065.12375
 21
9985.23675
  0
LINE
  8
┌▓È4
  6
CONTINUOUS
 10
-26065.12375
 20
9985.23675
 11
-26063.457
 21
9983.57025
  0
LINE
  8
┌▓È4
  6
CONTINUOUS
 10
-26063.457
 20
9983.57025
 11
-26061.7905
 21
9981.9035
  0
LINE
  8
┌▓È4
  6
CONTINUOUS
 10
-26061.7905
 20
9981.9035
 11
-26060.12375
 21
9980.23675
  0
LINE
  8
┌▓È4
  6
CONTINUOUS
 10
-26060.12375
 20
9980.23675
 11
-26058.457
 21
9978.57025
  0
LINE
  8
┌▓È4
  6
CONTINUOUS
 10
-26058.457
 20
9978.57025
 11
-26056.7905
 21
9976.9035
  0
LINE
  8
┌▓È4
  6
CONTINUOUS
 10
-26056.7905
 20
9976.9035
 11
-26053.457
 21
9976.9035
  0
LINE
  8
┌▓È4
  6
CONTINUOUS
 10
-26053.457
 20
9976.9035
 11
-26051.7905
 21
9976.9035
  0
LINE
  8
┌▓È4
  6
CONTINUOUS
 10
-26051.7905
 20
9976.9035
 11
-26050.12375
 21
9976.9035
  0
LINE
  8
┌▓È4
  6
CONTINUOUS
 10
-26050.12375
 20
9976.9035
 11
-26046.7905
 21
9976.9035
  0
LINE
  8
┌▓È4
  6
CONTINUOUS
 10
-26046.7905
 20
9976.9035
 11
-26045.12375
 21
9978.57025
  0
LINE
  8
┌▓È4
  6
CONTINUOUS
 10
-26045.12375
 20
9978.57025
 11
-26043.457
 21
9980.23675
  0
LINE
  8
┌▓È4
  6
CONTINUOUS
 10
-26043.457
 20
9980.23675
 11
-26041.7905
 21
9981.9035
  0
LINE
  8
┌▓È4
  6
CONTINUOUS
 10
-26041.7905
 20
9981.9035
 11
-26040.12375
 21
9983.57025
  0
LINE
  8
┌▓È4
  6
CONTINUOUS
 10
-26040.12375
 20
9983.57025
 11
-26038.457
 21
9985.23675
  0
LINE
  8
┌▓È4
  6
CONTINUOUS
 10
-26038.457
 20
9985.23675
 11
-26038.457
 21
9988.57025
  0
LINE
  8
┌▓È4
  6
CONTINUOUS
 10
-26038.457
 20
9988.57025
 11
-26038.457
 21
9990.23675
  0
ENDBLK
  0
BLOCK
  2
*GRP_0022
 70
    65
 10
0.0
 20
0.0
  0
LINE
  8
┌▓È4
  6
CONTINUOUS
 10
-26038.457
 20
10790.23675
 11
-26038.457
 21
10791.90325
  0
LINE
  8
┌▓È4
  6
CONTINUOUS
 10
-26038.457
 20
10791.90325
 11
-26038.457
 21
10795.23675
  0
LINE
  8
┌▓È4
  6
CONTINUOUS
 10
-26038.457
 20
10795.23675
 11
-26040.12375
 21
10796.90325
  0
LINE
  8
┌▓È4
  6
CONTINUOUS
 10
-26040.12375
 20
10796.90325
 11
-26041.7905
 21
10798.57
  0
LINE
  8
┌▓È4
  6
CONTINUOUS
 10
-26041.7905
 20
10798.57
 11
-26043.457
 21
10800.23675
  0
LINE
  8
┌▓È4
  6
CONTINUOUS
 10
-26043.457
 20
10800.23675
 11
-26045.12375
 21
10801.90325
  0
LINE
  8
┌▓È4
  6
CONTINUOUS
 10
-26045.12375
 20
10801.90325
 11
-26046.7905
 21
10803.57
  0
LINE
  8
┌▓È4
  6
CONTINUOUS
 10
-26046.7905
 20
10803.57
 11
-26050.12375
 21
10803.57
  0
LINE
  8
┌▓È4
  6
CONTINUOUS
 10
-26050.12375
 20
10803.57
 11
-26051.7905
 21
10803.57
  0
LINE
  8
┌▓È4
  6
CONTINUOUS
 10
-26051.7905
 20
10803.57
 11
-26053.457
 21
10803.57
  0
LINE
  8
┌▓È4
  6
CONTINUOUS
 10
-26053.457
 20
10803.57
 11
-26056.7905
 21
10803.57
  0
LINE
  8
┌▓È4
  6
CONTINUOUS
 10
-26056.7905
 20
10803.57
 11
-26058.457
 21
10801.90325
  0
LINE
  8
┌▓È4
  6
CONTINUOUS
 10
-26058.457
 20
10801.90325
 11
-26060.12375
 21
10800.23675
  0
LINE
  8
┌▓È4
  6
CONTINUOUS
 10
-26060.12375
 20
10800.23675
 11
-26061.7905
 21
10798.57
  0
LINE
  8
┌▓È4
  6
CONTINUOUS
 10
-26061.7905
 20
10798.57
 11
-26063.457
 21
10796.90325
  0
LINE
  8
┌▓È4
  6
CONTINUOUS
 10
-26063.457
 20
10796.90325
 11
-26065.12375
 21
10795.23675
  0
LINE
  8
┌▓È4
  6
CONTINUOUS
 10
-26065.12375
 20
10795.23675
 11
-26065.12375
 21
10791.90325
  0
LINE
  8
┌▓È4
  6
CONTINUOUS
 10
-26065.12375
 20
10791.90325
 11
-26065.12375
 21
10790.23675
  0
LINE
  8
┌▓È4
  6
CONTINUOUS
 10
-26065.12375
 20
10790.23675
 11
-26065.12375
 21
10788.57
  0
LINE
  8
┌▓È4
  6
CONTINUOUS
 10
-26065.12375
 20
10788.57
 11
-26065.12375
 21
10785.23675
  0
LINE
  8
┌▓È4
  6
CONTINUOUS
 10
-26065.12375
 20
10785.23675
 11
-26063.457
 21
10783.57
  0
LINE
  8
┌▓È4
  6
CONTINUOUS
 10
-26063.457
 20
10783.57
 11
-26061.7905
 21
10781.90325
  0
LINE
  8
┌▓È4
  6
CONTINUOUS
 10
-26061.7905
 20
10781.90325
 11
-26060.12375
 21
10780.23675
  0
LINE
  8
┌▓È4
  6
CONTINUOUS
 10
-26060.12375
 20
10780.23675
 11
-26058.457
 21
10778.57
  0
LINE
  8
┌▓È4
  6
CONTINUOUS
 10
-26058.457
 20
10778.57
 11
-26056.7905
 21
10776.90325
  0
LINE
  8
┌▓È4
  6
CONTINUOUS
 10
-26056.7905
 20
10776.90325
 11
-26053.457
 21
10776.90325
  0
LINE
  8
┌▓È4
  6
CONTINUOUS
 10
-26053.457
 20
10776.90325
 11
-26051.7905
 21
10776.90325
  0
LINE
  8
┌▓È4
  6
CONTINUOUS
 10
-26051.7905
 20
10776.90325
 11
-26050.12375
 21
10776.90325
  0
LINE
  8
┌▓È4
  6
CONTINUOUS
 10
-26050.12375
 20
10776.90325
 11
-26046.7905
 21
10776.90325
  0
LINE
  8
┌▓È4
  6
CONTINUOUS
 10
-26046.7905
 20
10776.90325
 11
-26045.12375
 21
10778.57
  0
LINE
  8
┌▓È4
  6
CONTINUOUS
 10
-26045.12375
 20
10778.57
 11
-26043.457
 21
10780.23675
  0
LINE
  8
┌▓È4
  6
CONTINUOUS
 10
-26043.457
 20
10780.23675
 11
-26041.7905
 21
10781.90325
  0
LINE
  8
┌▓È4
  6
CONTINUOUS
 10
-26041.7905
 20
10781.90325
 11
-26040.12375
 21
10783.57
  0
LINE
  8
┌▓È4
  6
CONTINUOUS
 10
-26040.12375
 20
10783.57
 11
-26038.457
 21
10785.23675
  0
LINE
  8
┌▓È4
  6
CONTINUOUS
 10
-26038.457
 20
10785.23675
 11
-26038.457
 21
10788.57
  0
LINE
  8
┌▓È4
  6
CONTINUOUS
 10
-26038.457
 20
10788.57
 11
-26038.457
 21
10790.23675
  0
ENDBLK
  0
BLOCK
  2
*GRP_0023
 70
    65
 10
0.0
 20
0.0
  0
LINE
  8
┌▓È4
  6
CONTINUOUS
 10
-26038.457
 20
10623.57
 11
-26038.457
 21
10625.23675
  0
LINE
  8
┌▓È4
  6
CONTINUOUS
 10
-26038.457
 20
10625.23675
 11
-26038.457
 21
10628.57
  0
LINE
  8
┌▓È4
  6
CONTINUOUS
 10
-26038.457
 20
10628.57
 11
-26040.12375
 21
10630.23675
  0
LINE
  8
┌▓È4
  6
CONTINUOUS
 10
-26040.12375
 20
10630.23675
 11
-26041.7905
 21
10631.90325
  0
LINE
  8
┌▓È4
  6
CONTINUOUS
 10
-26041.7905
 20
10631.90325
 11
-26043.457
 21
10633.57
  0
LINE
  8
┌▓È4
  6
CONTINUOUS
 10
-26043.457
 20
10633.57
 11
-26045.12375
 21
10635.23675
  0
LINE
  8
┌▓È4
  6
CONTINUOUS
 10
-26045.12375
 20
10635.23675
 11
-26046.7905
 21
10636.90325
  0
LINE
  8
┌▓È4
  6
CONTINUOUS
 10
-26046.7905
 20
10636.90325
 11
-26050.12375
 21
10636.90325
  0
LINE
  8
┌▓È4
  6
CONTINUOUS
 10
-26050.12375
 20
10636.90325
 11
-26051.7905
 21
10636.90325
  0
LINE
  8
┌▓È4
  6
CONTINUOUS
 10
-26051.7905
 20
10636.90325
 11
-26053.457
 21
10636.90325
  0
LINE
  8
┌▓È4
  6
CONTINUOUS
 10
-26053.457
 20
10636.90325
 11
-26056.7905
 21
10636.90325
  0
LINE
  8
┌▓È4
  6
CONTINUOUS
 10
-26056.7905
 20
10636.90325
 11
-26058.457
 21
10635.23675
  0
LINE
  8
┌▓È4
  6
CONTINUOUS
 10
-26058.457
 20
10635.23675
 11
-26060.12375
 21
10633.57
  0
LINE
  8
┌▓È4
  6
CONTINUOUS
 10
-26060.12375
 20
10633.57
 11
-26061.7905
 21
10631.90325
  0
LINE
  8
┌▓È4
  6
CONTINUOUS
 10
-26061.7905
 20
10631.90325
 11
-26063.457
 21
10630.23675
  0
LINE
  8
┌▓È4
  6
CONTINUOUS
 10
-26063.457
 20
10630.23675
 11
-26065.12375
 21
10628.57
  0
LINE
  8
┌▓È4
  6
CONTINUOUS
 10
-26065.12375
 20
10628.57
 11
-26065.12375
 21
10625.23675
  0
LINE
  8
┌▓È4
  6
CONTINUOUS
 10
-26065.12375
 20
10625.23675
 11
-26065.12375
 21
10623.57
  0
LINE
  8
┌▓È4
  6
CONTINUOUS
 10
-26065.12375
 20
10623.57
 11
-26065.12375
 21
10621.90325
  0
LINE
  8
┌▓È4
  6
CONTINUOUS
 10
-26065.12375
 20
10621.90325
 11
-26065.12375
 21
10618.57
  0
LINE
  8
┌▓È4
  6
CONTINUOUS
 10
-26065.12375
 20
10618.57
 11
-26063.457
 21
10616.90325
  0
LINE
  8
┌▓È4
  6
CONTINUOUS
 10
-26063.457
 20
10616.90325
 11
-26061.7905
 21
10615.23675
  0
LINE
  8
┌▓È4
  6
CONTINUOUS
 10
-26061.7905
 20
10615.23675
 11
-26060.12375
 21
10613.57
  0
LINE
  8
┌▓È4
  6
CONTINUOUS
 10
-26060.12375
 20
10613.57
 11
-26058.457
 21
10611.90325
  0
LINE
  8
┌▓È4
  6
CONTINUOUS
 10
-26058.457
 20
10611.90325
 11
-26056.7905
 21
10610.23675
  0
LINE
  8
┌▓È4
  6
CONTINUOUS
 10
-26056.7905
 20
10610.23675
 11
-26053.457
 21
10610.23675
  0
LINE
  8
┌▓È4
  6
CONTINUOUS
 10
-26053.457
 20
10610.23675
 11
-26051.7905
 21
10610.23675
  0
LINE
  8
┌▓È4
  6
CONTINUOUS
 10
-26051.7905
 20
10610.23675
 11
-26050.12375
 21
10610.23675
  0
LINE
  8
┌▓È4
  6
CONTINUOUS
 10
-26050.12375
 20
10610.23675
 11
-26046.7905
 21
10610.23675
  0
LINE
  8
┌▓È4
  6
CONTINUOUS
 10
-26046.7905
 20
10610.23675
 11
-26045.12375
 21
10611.90325
  0
LINE
  8
┌▓È4
  6
CONTINUOUS
 10
-26045.12375
 20
10611.90325
 11
-26043.457
 21
10613.57
  0
LINE
  8
┌▓È4
  6
CONTINUOUS
 10
-26043.457
 20
10613.57
 11
-26041.7905
 21
10615.23675
  0
LINE
  8
┌▓È4
  6
CONTINUOUS
 10
-26041.7905
 20
10615.23675
 11
-26040.12375
 21
10616.90325
  0
LINE
  8
┌▓È4
  6
CONTINUOUS
 10
-26040.12375
 20
10616.90325
 11
-26038.457
 21
10618.57
  0
LINE
  8
┌▓È4
  6
CONTINUOUS
 10
-26038.457
 20
10618.57
 11
-26038.457
 21
10621.90325
  0
LINE
  8
┌▓È4
  6
CONTINUOUS
 10
-26038.457
 20
10621.90325
 11
-26038.457
 21
10623.57
  0
ENDBLK
  0
BLOCK
  2
*GRP_0024
 70
    65
 10
0.0
 20
0.0
  0
LINE
  8
┌▓È4
  6
CONTINUOUS
 10
-26038.457
 20
10956.90325
 11
-26038.457
 21
10958.57
  0
LINE
  8
┌▓È4
  6
CONTINUOUS
 10
-26038.457
 20
10958.57
 11
-26038.457
 21
10961.90325
  0
LINE
  8
┌▓È4
  6
CONTINUOUS
 10
-26038.457
 20
10961.90325
 11
-26040.12375
 21
10963.57
  0
LINE
  8
┌▓È4
  6
CONTINUOUS
 10
-26040.12375
 20
10963.57
 11
-26041.7905
 21
10965.23675
  0
LINE
  8
┌▓È4
  6
CONTINUOUS
 10
-26041.7905
 20
10965.23675
 11
-26043.457
 21
10966.90325
  0
LINE
  8
┌▓È4
  6
CONTINUOUS
 10
-26043.457
 20
10966.90325
 11
-26045.12375
 21
10968.57
  0
LINE
  8
┌▓È4
  6
CONTINUOUS
 10
-26045.12375
 20
10968.57
 11
-26046.7905
 21
10970.23675
  0
LINE
  8
┌▓È4
  6
CONTINUOUS
 10
-26046.7905
 20
10970.23675
 11
-26050.12375
 21
10970.23675
  0
LINE
  8
┌▓È4
  6
CONTINUOUS
 10
-26050.12375
 20
10970.23675
 11
-26051.7905
 21
10970.23675
  0
LINE
  8
┌▓È4
  6
CONTINUOUS
 10
-26051.7905
 20
10970.23675
 11
-26053.457
 21
10970.23675
  0
LINE
  8
┌▓È4
  6
CONTINUOUS
 10
-26053.457
 20
10970.23675
 11
-26056.7905
 21
10970.23675
  0
LINE
  8
┌▓È4
  6
CONTINUOUS
 10
-26056.7905
 20
10970.23675
 11
-26058.457
 21
10968.57
  0
LINE
  8
┌▓È4
  6
CONTINUOUS
 10
-26058.457
 20
10968.57
 11
-26060.12375
 21
10966.90325
  0
LINE
  8
┌▓È4
  6
CONTINUOUS
 10
-26060.12375
 20
10966.90325
 11
-26061.7905
 21
10965.23675
  0
LINE
  8
┌▓È4
  6
CONTINUOUS
 10
-26061.7905
 20
10965.23675
 11
-26063.457
 21
10963.57
  0
LINE
  8
┌▓È4
  6
CONTINUOUS
 10
-26063.457
 20
10963.57
 11
-26065.12375
 21
10961.90325
  0
LINE
  8
┌▓È4
  6
CONTINUOUS
 10
-26065.12375
 20
10961.90325
 11
-26065.12375
 21
10958.57
  0
LINE
  8
┌▓È4
  6
CONTINUOUS
 10
-26065.12375
 20
10958.57
 11
-26065.12375
 21
10956.90325
  0
LINE
  8
┌▓È4
  6
CONTINUOUS
 10
-26065.12375
 20
10956.90325
 11
-26065.12375
 21
10955.23675
  0
LINE
  8
┌▓È4
  6
CONTINUOUS
 10
-26065.12375
 20
10955.23675
 11
-26065.12375
 21
10951.90325
  0
LINE
  8
┌▓È4
  6
CONTINUOUS
 10
-26065.12375
 20
10951.90325
 11
-26063.457
 21
10950.23675
  0
LINE
  8
┌▓È4
  6
CONTINUOUS
 10
-26063.457
 20
10950.23675
 11
-26061.7905
 21
10948.57
  0
LINE
  8
┌▓È4
  6
CONTINUOUS
 10
-26061.7905
 20
10948.57
 11
-26060.12375
 21
10946.90325
  0
LINE
  8
┌▓È4
  6
CONTINUOUS
 10
-26060.12375
 20
10946.90325
 11
-26058.457
 21
10945.23675
  0
LINE
  8
┌▓È4
  6
CONTINUOUS
 10
-26058.457
 20
10945.23675
 11
-26056.7905
 21
10943.57
  0
LINE
  8
┌▓È4
  6
CONTINUOUS
 10
-26056.7905
 20
10943.57
 11
-26053.457
 21
10943.57
  0
LINE
  8
┌▓È4
  6
CONTINUOUS
 10
-26053.457
 20
10943.57
 11
-26051.7905
 21
10943.57
  0
LINE
  8
┌▓È4
  6
CONTINUOUS
 10
-26051.7905
 20
10943.57
 11
-26050.12375
 21
10943.57
  0
LINE
  8
┌▓È4
  6
CONTINUOUS
 10
-26050.12375
 20
10943.57
 11
-26046.7905
 21
10943.57
  0
LINE
  8
┌▓È4
  6
CONTINUOUS
 10
-26046.7905
 20
10943.57
 11
-26045.12375
 21
10945.23675
  0
LINE
  8
┌▓È4
  6
CONTINUOUS
 10
-26045.12375
 20
10945.23675
 11
-26043.457
 21
10946.90325
  0
LINE
  8
┌▓È4
  6
CONTINUOUS
 10
-26043.457
 20
10946.90325
 11
-26041.7905
 21
10948.57
  0
LINE
  8
┌▓È4
  6
CONTINUOUS
 10
-26041.7905
 20
10948.57
 11
-26040.12375
 21
10950.23675
  0
LINE
  8
┌▓È4
  6
CONTINUOUS
 10
-26040.12375
 20
10950.23675
 11
-26038.457
 21
10951.90325
  0
LINE
  8
┌▓È4
  6
CONTINUOUS
 10
-26038.457
 20
10951.90325
 11
-26038.457
 21
10955.23675
  0
LINE
  8
┌▓È4
  6
CONTINUOUS
 10
-26038.457
 20
10955.23675
 11
-26038.457
 21
10956.90325
  0
ENDBLK
  0
BLOCK
  2
*GRP_0025
 70
    65
 10
0.0
 20
0.0
  0
LINE
  8
┌▓È4
  6
CONTINUOUS
 10
-24541.79025
 20
9436.9035
 11
-24541.79025
 21
9438.57
  0
LINE
  8
┌▓È4
  6
CONTINUOUS
 10
-24541.79025
 20
9438.57
 11
-24541.79025
 21
9441.9035
  0
LINE
  8
┌▓È4
  6
CONTINUOUS
 10
-24541.79025
 20
9441.9035
 11
-24540.1235
 21
9443.57
  0
LINE
  8
┌▓È4
  6
CONTINUOUS
 10
-24540.1235
 20
9443.57
 11
-24538.457
 21
9445.23675
  0
LINE
  8
┌▓È4
  6
CONTINUOUS
 10
-24538.457
 20
9445.23675
 11
-24536.79025
 21
9446.9035
  0
LINE
  8
┌▓È4
  6
CONTINUOUS
 10
-24536.79025
 20
9446.9035
 11
-24535.1235
 21
9448.57
  0
LINE
  8
┌▓È4
  6
CONTINUOUS
 10
-24535.1235
 20
9448.57
 11
-24533.457
 21
9450.23675
  0
LINE
  8
┌▓È4
  6
CONTINUOUS
 10
-24533.457
 20
9450.23675
 11
-24530.1235
 21
9450.23675
  0
LINE
  8
┌▓È4
  6
CONTINUOUS
 10
-24530.1235
 20
9450.23675
 11
-24528.457
 21
9450.23675
  0
LINE
  8
┌▓È4
  6
CONTINUOUS
 10
-24528.457
 20
9450.23675
 11
-24526.79025
 21
9450.23675
  0
LINE
  8
┌▓È4
  6
CONTINUOUS
 10
-24526.79025
 20
9450.23675
 11
-24523.457
 21
9450.23675
  0
LINE
  8
┌▓È4
  6
CONTINUOUS
 10
-24523.457
 20
9450.23675
 11
-24521.79025
 21
9448.57
  0
LINE
  8
┌▓È4
  6
CONTINUOUS
 10
-24521.79025
 20
9448.57
 11
-24520.1235
 21
9446.9035
  0
LINE
  8
┌▓È4
  6
CONTINUOUS
 10
-24520.1235
 20
9446.9035
 11
-24518.457
 21
9445.23675
  0
LINE
  8
┌▓È4
  6
CONTINUOUS
 10
-24518.457
 20
9445.23675
 11
-24516.79025
 21
9443.57
  0
LINE
  8
┌▓È4
  6
CONTINUOUS
 10
-24516.79025
 20
9443.57
 11
-24515.1235
 21
9441.9035
  0
LINE
  8
┌▓È4
  6
CONTINUOUS
 10
-24515.1235
 20
9441.9035
 11
-24515.1235
 21
9438.57
  0
LINE
  8
┌▓È4
  6
CONTINUOUS
 10
-24515.1235
 20
9438.57
 11
-24515.1235
 21
9436.9035
  0
LINE
  8
┌▓È4
  6
CONTINUOUS
 10
-24515.1235
 20
9436.9035
 11
-24515.1235
 21
9435.23675
  0
LINE
  8
┌▓È4
  6
CONTINUOUS
 10
-24515.1235
 20
9435.23675
 11
-24515.1235
 21
9431.9035
  0
LINE
  8
┌▓È4
  6
CONTINUOUS
 10
-24515.1235
 20
9431.9035
 11
-24516.79025
 21
9430.23675
  0
LINE
  8
┌▓È4
  6
CONTINUOUS
 10
-24516.79025
 20
9430.23675
 11
-24518.457
 21
9428.57
  0
LINE
  8
┌▓È4
  6
CONTINUOUS
 10
-24518.457
 20
9428.57
 11
-24520.1235
 21
9426.9035
  0
LINE
  8
┌▓È4
  6
CONTINUOUS
 10
-24520.1235
 20
9426.9035
 11
-24521.79025
 21
9425.23675
  0
LINE
  8
┌▓È4
  6
CONTINUOUS
 10
-24521.79025
 20
9425.23675
 11
-24523.457
 21
9423.57
  0
LINE
  8
┌▓È4
  6
CONTINUOUS
 10
-24523.457
 20
9423.57
 11
-24526.79025
 21
9423.57
  0
LINE
  8
┌▓È4
  6
CONTINUOUS
 10
-24526.79025
 20
9423.57
 11
-24528.457
 21
9423.57
  0
LINE
  8
┌▓È4
  6
CONTINUOUS
 10
-24528.457
 20
9423.57
 11
-24530.1235
 21
9423.57
  0
LINE
  8
┌▓È4
  6
CONTINUOUS
 10
-24530.1235
 20
9423.57
 11
-24533.457
 21
9423.57
  0
LINE
  8
┌▓È4
  6
CONTINUOUS
 10
-24533.457
 20
9423.57
 11
-24535.1235
 21
9425.23675
  0
LINE
  8
┌▓È4
  6
CONTINUOUS
 10
-24535.1235
 20
9425.23675
 11
-24536.79025
 21
9426.9035
  0
LINE
  8
┌▓È4
  6
CONTINUOUS
 10
-24536.79025
 20
9426.9035
 11
-24538.457
 21
9428.57
  0
LINE
  8
┌▓È4
  6
CONTINUOUS
 10
-24538.457
 20
9428.57
 11
-24540.1235
 21
9430.23675
  0
LINE
  8
┌▓È4
  6
CONTINUOUS
 10
-24540.1235
 20
9430.23675
 11
-24541.79025
 21
9431.9035
  0
LINE
  8
┌▓È4
  6
CONTINUOUS
 10
-24541.79025
 20
9431.9035
 11
-24541.79025
 21
9435.23675
  0
LINE
  8
┌▓È4
  6
CONTINUOUS
 10
-24541.79025
 20
9435.23675
 11
-24541.79025
 21
9436.9035
  0
ENDBLK
  0
BLOCK
  2
*GRP_0026
 70
    65
 10
0.0
 20
0.0
  0
LINE
  8
┌▓È4
  6
CONTINUOUS
 10
-24541.79025
 20
9270.23675
 11
-24541.79025
 21
9271.9035
  0
LINE
  8
┌▓È4
  6
CONTINUOUS
 10
-24541.79025
 20
9271.9035
 11
-24541.79025
 21
9275.23675
  0
LINE
  8
┌▓È4
  6
CONTINUOUS
 10
-24541.79025
 20
9275.23675
 11
-24540.1235
 21
9276.9035
  0
LINE
  8
┌▓È4
  6
CONTINUOUS
 10
-24540.1235
 20
9276.9035
 11
-24538.457
 21
9278.57
  0
LINE
  8
┌▓È4
  6
CONTINUOUS
 10
-24538.457
 20
9278.57
 11
-24536.79025
 21
9280.23675
  0
LINE
  8
┌▓È4
  6
CONTINUOUS
 10
-24536.79025
 20
9280.23675
 11
-24535.1235
 21
9281.9035
  0
LINE
  8
┌▓È4
  6
CONTINUOUS
 10
-24535.1235
 20
9281.9035
 11
-24533.457
 21
9283.57
  0
LINE
  8
┌▓È4
  6
CONTINUOUS
 10
-24533.457
 20
9283.57
 11
-24530.1235
 21
9283.57
  0
LINE
  8
┌▓È4
  6
CONTINUOUS
 10
-24530.1235
 20
9283.57
 11
-24528.457
 21
9283.57
  0
LINE
  8
┌▓È4
  6
CONTINUOUS
 10
-24528.457
 20
9283.57
 11
-24526.79025
 21
9283.57
  0
LINE
  8
┌▓È4
  6
CONTINUOUS
 10
-24526.79025
 20
9283.57
 11
-24523.457
 21
9283.57
  0
LINE
  8
┌▓È4
  6
CONTINUOUS
 10
-24523.457
 20
9283.57
 11
-24521.79025
 21
9281.9035
  0
LINE
  8
┌▓È4
  6
CONTINUOUS
 10
-24521.79025
 20
9281.9035
 11
-24520.1235
 21
9280.23675
  0
LINE
  8
┌▓È4
  6
CONTINUOUS
 10
-24520.1235
 20
9280.23675
 11
-24518.457
 21
9278.57
  0
LINE
  8
┌▓È4
  6
CONTINUOUS
 10
-24518.457
 20
9278.57
 11
-24516.79025
 21
9276.9035
  0
LINE
  8
┌▓È4
  6
CONTINUOUS
 10
-24516.79025
 20
9276.9035
 11
-24515.1235
 21
9275.23675
  0
LINE
  8
┌▓È4
  6
CONTINUOUS
 10
-24515.1235
 20
9275.23675
 11
-24515.1235
 21
9271.9035
  0
LINE
  8
┌▓È4
  6
CONTINUOUS
 10
-24515.1235
 20
9271.9035
 11
-24515.1235
 21
9270.23675
  0
LINE
  8
┌▓È4
  6
CONTINUOUS
 10
-24515.1235
 20
9270.23675
 11
-24515.1235
 21
9268.57
  0
LINE
  8
┌▓È4
  6
CONTINUOUS
 10
-24515.1235
 20
9268.57
 11
-24515.1235
 21
9265.23675
  0
LINE
  8
┌▓È4
  6
CONTINUOUS
 10
-24515.1235
 20
9265.23675
 11
-24516.79025
 21
9263.57
  0
LINE
  8
┌▓È4
  6
CONTINUOUS
 10
-24516.79025
 20
9263.57
 11
-24518.457
 21
9261.9035
  0
LINE
  8
┌▓È4
  6
CONTINUOUS
 10
-24518.457
 20
9261.9035
 11
-24520.1235
 21
9260.23675
  0
LINE
  8
┌▓È4
  6
CONTINUOUS
 10
-24520.1235
 20
9260.23675
 11
-24521.79025
 21
9258.57
  0
LINE
  8
┌▓È4
  6
CONTINUOUS
 10
-24521.79025
 20
9258.57
 11
-24523.457
 21
9256.9035
  0
LINE
  8
┌▓È4
  6
CONTINUOUS
 10
-24523.457
 20
9256.9035
 11
-24526.79025
 21
9256.9035
  0
LINE
  8
┌▓È4
  6
CONTINUOUS
 10
-24526.79025
 20
9256.9035
 11
-24528.457
 21
9256.9035
  0
LINE
  8
┌▓È4
  6
CONTINUOUS
 10
-24528.457
 20
9256.9035
 11
-24530.1235
 21
9256.9035
  0
LINE
  8
┌▓È4
  6
CONTINUOUS
 10
-24530.1235
 20
9256.9035
 11
-24533.457
 21
9256.9035
  0
LINE
  8
┌▓È4
  6
CONTINUOUS
 10
-24533.457
 20
9256.9035
 11
-24535.1235
 21
9258.57
  0
LINE
  8
┌▓È4
  6
CONTINUOUS
 10
-24535.1235
 20
9258.57
 11
-24536.79025
 21
9260.23675
  0
LINE
  8
┌▓È4
  6
CONTINUOUS
 10
-24536.79025
 20
9260.23675
 11
-24538.457
 21
9261.9035
  0
LINE
  8
┌▓È4
  6
CONTINUOUS
 10
-24538.457
 20
9261.9035
 11
-24540.1235
 21
9263.57
  0
LINE
  8
┌▓È4
  6
CONTINUOUS
 10
-24540.1235
 20
9263.57
 11
-24541.79025
 21
9265.23675
  0
LINE
  8
┌▓È4
  6
CONTINUOUS
 10
-24541.79025
 20
9265.23675
 11
-24541.79025
 21
9268.57
  0
LINE
  8
┌▓È4
  6
CONTINUOUS
 10
-24541.79025
 20
9268.57
 11
-24541.79025
 21
9270.23675
  0
ENDBLK
  0
BLOCK
  2
*GRP_0027
 70
    65
 10
0.0
 20
0.0
  0
LINE
  8
┌▓È4
  6
CONTINUOUS
 10
-24541.79025
 20
9603.57
 11
-24541.79025
 21
9605.23675
  0
LINE
  8
┌▓È4
  6
CONTINUOUS
 10
-24541.79025
 20
9605.23675
 11
-24541.79025
 21
9608.57
  0
LINE
  8
┌▓È4
  6
CONTINUOUS
 10
-24541.79025
 20
9608.57
 11
-24540.1235
 21
9610.23675
  0
LINE
  8
┌▓È4
  6
CONTINUOUS
 10
-24540.1235
 20
9610.23675
 11
-24538.457
 21
9611.9035
  0
LINE
  8
┌▓È4
  6
CONTINUOUS
 10
-24538.457
 20
9611.9035
 11
-24536.79025
 21
9613.57
  0
LINE
  8
┌▓È4
  6
CONTINUOUS
 10
-24536.79025
 20
9613.57
 11
-24535.1235
 21
9615.23675
  0
LINE
  8
┌▓È4
  6
CONTINUOUS
 10
-24535.1235
 20
9615.23675
 11
-24533.457
 21
9616.9035
  0
LINE
  8
┌▓È4
  6
CONTINUOUS
 10
-24533.457
 20
9616.9035
 11
-24530.1235
 21
9616.9035
  0
LINE
  8
┌▓È4
  6
CONTINUOUS
 10
-24530.1235
 20
9616.9035
 11
-24528.457
 21
9616.9035
  0
LINE
  8
┌▓È4
  6
CONTINUOUS
 10
-24528.457
 20
9616.9035
 11
-24526.79025
 21
9616.9035
  0
LINE
  8
┌▓È4
  6
CONTINUOUS
 10
-24526.79025
 20
9616.9035
 11
-24523.457
 21
9616.9035
  0
LINE
  8
┌▓È4
  6
CONTINUOUS
 10
-24523.457
 20
9616.9035
 11
-24521.79025
 21
9615.23675
  0
LINE
  8
┌▓È4
  6
CONTINUOUS
 10
-24521.79025
 20
9615.23675
 11
-24520.1235
 21
9613.57
  0
LINE
  8
┌▓È4
  6
CONTINUOUS
 10
-24520.1235
 20
9613.57
 11
-24518.457
 21
9611.9035
  0
LINE
  8
┌▓È4
  6
CONTINUOUS
 10
-24518.457
 20
9611.9035
 11
-24516.79025
 21
9610.23675
  0
LINE
  8
┌▓È4
  6
CONTINUOUS
 10
-24516.79025
 20
9610.23675
 11
-24515.1235
 21
9608.57
  0
LINE
  8
┌▓È4
  6
CONTINUOUS
 10
-24515.1235
 20
9608.57
 11
-24515.1235
 21
9605.23675
  0
LINE
  8
┌▓È4
  6
CONTINUOUS
 10
-24515.1235
 20
9605.23675
 11
-24515.1235
 21
9603.57
  0
LINE
  8
┌▓È4
  6
CONTINUOUS
 10
-24515.1235
 20
9603.57
 11
-24515.1235
 21
9601.9035
  0
LINE
  8
┌▓È4
  6
CONTINUOUS
 10
-24515.1235
 20
9601.9035
 11
-24515.1235
 21
9598.57
  0
LINE
  8
┌▓È4
  6
CONTINUOUS
 10
-24515.1235
 20
9598.57
 11
-24516.79025
 21
9596.9035
  0
LINE
  8
┌▓È4
  6
CONTINUOUS
 10
-24516.79025
 20
9596.9035
 11
-24518.457
 21
9595.23675
  0
LINE
  8
┌▓È4
  6
CONTINUOUS
 10
-24518.457
 20
9595.23675
 11
-24520.1235
 21
9593.57
  0
LINE
  8
┌▓È4
  6
CONTINUOUS
 10
-24520.1235
 20
9593.57
 11
-24521.79025
 21
9591.9035
  0
LINE
  8
┌▓È4
  6
CONTINUOUS
 10
-24521.79025
 20
9591.9035
 11
-24523.457
 21
9590.23675
  0
LINE
  8
┌▓È4
  6
CONTINUOUS
 10
-24523.457
 20
9590.23675
 11
-24526.79025
 21
9590.23675
  0
LINE
  8
┌▓È4
  6
CONTINUOUS
 10
-24526.79025
 20
9590.23675
 11
-24528.457
 21
9590.23675
  0
LINE
  8
┌▓È4
  6
CONTINUOUS
 10
-24528.457
 20
9590.23675
 11
-24530.1235
 21
9590.23675
  0
LINE
  8
┌▓È4
  6
CONTINUOUS
 10
-24530.1235
 20
9590.23675
 11
-24533.457
 21
9590.23675
  0
LINE
  8
┌▓È4
  6
CONTINUOUS
 10
-24533.457
 20
9590.23675
 11
-24535.1235
 21
9591.9035
  0
LINE
  8
┌▓È4
  6
CONTINUOUS
 10
-24535.1235
 20
9591.9035
 11
-24536.79025
 21
9593.57
  0
LINE
  8
┌▓È4
  6
CONTINUOUS
 10
-24536.79025
 20
9593.57
 11
-24538.457
 21
9595.23675
  0
LINE
  8
┌▓È4
  6
CONTINUOUS
 10
-24538.457
 20
9595.23675
 11
-24540.1235
 21
9596.9035
  0
LINE
  8
┌▓È4
  6
CONTINUOUS
 10
-24540.1235
 20
9596.9035
 11
-24541.79025
 21
9598.57
  0
LINE
  8
┌▓È4
  6
CONTINUOUS
 10
-24541.79025
 20
9598.57
 11
-24541.79025
 21
9601.9035
  0
LINE
  8
┌▓È4
  6
CONTINUOUS
 10
-24541.79025
 20
9601.9035
 11
-24541.79025
 21
9603.57
  0
ENDBLK
  0
BLOCK
  2
*GRP_0028
 70
    65
 10
0.0
 20
0.0
  0
LINE
  8
┌▓È4
  6
CONTINUOUS
 10
-24541.79025
 20
10016.9035
 11
-24541.79025
 21
10018.57
  0
LINE
  8
┌▓È4
  6
CONTINUOUS
 10
-24541.79025
 20
10018.57
 11
-24541.79025
 21
10021.9035
  0
LINE
  8
┌▓È4
  6
CONTINUOUS
 10
-24541.79025
 20
10021.9035
 11
-24540.1235
 21
10023.57
  0
LINE
  8
┌▓È4
  6
CONTINUOUS
 10
-24540.1235
 20
10023.57
 11
-24538.457
 21
10025.23675
  0
LINE
  8
┌▓È4
  6
CONTINUOUS
 10
-24538.457
 20
10025.23675
 11
-24536.79025
 21
10026.9035
  0
LINE
  8
┌▓È4
  6
CONTINUOUS
 10
-24536.79025
 20
10026.9035
 11
-24535.1235
 21
10028.57
  0
LINE
  8
┌▓È4
  6
CONTINUOUS
 10
-24535.1235
 20
10028.57
 11
-24533.457
 21
10030.23675
  0
LINE
  8
┌▓È4
  6
CONTINUOUS
 10
-24533.457
 20
10030.23675
 11
-24530.1235
 21
10030.23675
  0
LINE
  8
┌▓È4
  6
CONTINUOUS
 10
-24530.1235
 20
10030.23675
 11
-24528.457
 21
10030.23675
  0
LINE
  8
┌▓È4
  6
CONTINUOUS
 10
-24528.457
 20
10030.23675
 11
-24526.79025
 21
10030.23675
  0
LINE
  8
┌▓È4
  6
CONTINUOUS
 10
-24526.79025
 20
10030.23675
 11
-24523.457
 21
10030.23675
  0
LINE
  8
┌▓È4
  6
CONTINUOUS
 10
-24523.457
 20
10030.23675
 11
-24521.79025
 21
10028.57
  0
LINE
  8
┌▓È4
  6
CONTINUOUS
 10
-24521.79025
 20
10028.57
 11
-24520.1235
 21
10026.9035
  0
LINE
  8
┌▓È4
  6
CONTINUOUS
 10
-24520.1235
 20
10026.9035
 11
-24518.457
 21
10025.23675
  0
LINE
  8
┌▓È4
  6
CONTINUOUS
 10
-24518.457
 20
10025.23675
 11
-24516.79025
 21
10023.57
  0
LINE
  8
┌▓È4
  6
CONTINUOUS
 10
-24516.79025
 20
10023.57
 11
-24515.1235
 21
10021.9035
  0
LINE
  8
┌▓È4
  6
CONTINUOUS
 10
-24515.1235
 20
10021.9035
 11
-24515.1235
 21
10018.57
  0
LINE
  8
┌▓È4
  6
CONTINUOUS
 10
-24515.1235
 20
10018.57
 11
-24515.1235
 21
10016.9035
  0
LINE
  8
┌▓È4
  6
CONTINUOUS
 10
-24515.1235
 20
10016.9035
 11
-24515.1235
 21
10015.23675
  0
LINE
  8
┌▓È4
  6
CONTINUOUS
 10
-24515.1235
 20
10015.23675
 11
-24515.1235
 21
10011.9035
  0
LINE
  8
┌▓È4
  6
CONTINUOUS
 10
-24515.1235
 20
10011.9035
 11
-24516.79025
 21
10010.23675
  0
LINE
  8
┌▓È4
  6
CONTINUOUS
 10
-24516.79025
 20
10010.23675
 11
-24518.457
 21
10008.57
  0
LINE
  8
┌▓È4
  6
CONTINUOUS
 10
-24518.457
 20
10008.57
 11
-24520.1235
 21
10006.9035
  0
LINE
  8
┌▓È4
  6
CONTINUOUS
 10
-24520.1235
 20
10006.9035
 11
-24521.79025
 21
10005.23675
  0
LINE
  8
┌▓È4
  6
CONTINUOUS
 10
-24521.79025
 20
10005.23675
 11
-24523.457
 21
10003.57
  0
LINE
  8
┌▓È4
  6
CONTINUOUS
 10
-24523.457
 20
10003.57
 11
-24526.79025
 21
10003.57
  0
LINE
  8
┌▓È4
  6
CONTINUOUS
 10
-24526.79025
 20
10003.57
 11
-24528.457
 21
10003.57
  0
LINE
  8
┌▓È4
  6
CONTINUOUS
 10
-24528.457
 20
10003.57
 11
-24530.1235
 21
10003.57
  0
LINE
  8
┌▓È4
  6
CONTINUOUS
 10
-24530.1235
 20
10003.57
 11
-24533.457
 21
10003.57
  0
LINE
  8
┌▓È4
  6
CONTINUOUS
 10
-24533.457
 20
10003.57
 11
-24535.1235
 21
10005.23675
  0
LINE
  8
┌▓È4
  6
CONTINUOUS
 10
-24535.1235
 20
10005.23675
 11
-24536.79025
 21
10006.9035
  0
LINE
  8
┌▓È4
  6
CONTINUOUS
 10
-24536.79025
 20
10006.9035
 11
-24538.457
 21
10008.57
  0
LINE
  8
┌▓È4
  6
CONTINUOUS
 10
-24538.457
 20
10008.57
 11
-24540.1235
 21
10010.23675
  0
LINE
  8
┌▓È4
  6
CONTINUOUS
 10
-24540.1235
 20
10010.23675
 11
-24541.79025
 21
10011.9035
  0
LINE
  8
┌▓È4
  6
CONTINUOUS
 10
-24541.79025
 20
10011.9035
 11
-24541.79025
 21
10015.23675
  0
LINE
  8
┌▓È4
  6
CONTINUOUS
 10
-24541.79025
 20
10015.23675
 11
-24541.79025
 21
10016.9035
  0
ENDBLK
  0
BLOCK
  2
*GRP_0029
 70
    65
 10
0.0
 20
0.0
  0
LINE
  8
┌▓È4
  6
CONTINUOUS
 10
-24541.79025
 20
9850.23675
 11
-24541.79025
 21
9851.9035
  0
LINE
  8
┌▓È4
  6
CONTINUOUS
 10
-24541.79025
 20
9851.9035
 11
-24541.79025
 21
9855.23675
  0
LINE
  8
┌▓È4
  6
CONTINUOUS
 10
-24541.79025
 20
9855.23675
 11
-24540.1235
 21
9856.9035
  0
LINE
  8
┌▓È4
  6
CONTINUOUS
 10
-24540.1235
 20
9856.9035
 11
-24538.457
 21
9858.57
  0
LINE
  8
┌▓È4
  6
CONTINUOUS
 10
-24538.457
 20
9858.57
 11
-24536.79025
 21
9860.23675
  0
LINE
  8
┌▓È4
  6
CONTINUOUS
 10
-24536.79025
 20
9860.23675
 11
-24535.1235
 21
9861.9035
  0
LINE
  8
┌▓È4
  6
CONTINUOUS
 10
-24535.1235
 20
9861.9035
 11
-24533.457
 21
9863.57
  0
LINE
  8
┌▓È4
  6
CONTINUOUS
 10
-24533.457
 20
9863.57
 11
-24530.1235
 21
9863.57
  0
LINE
  8
┌▓È4
  6
CONTINUOUS
 10
-24530.1235
 20
9863.57
 11
-24528.457
 21
9863.57
  0
LINE
  8
┌▓È4
  6
CONTINUOUS
 10
-24528.457
 20
9863.57
 11
-24526.79025
 21
9863.57
  0
LINE
  8
┌▓È4
  6
CONTINUOUS
 10
-24526.79025
 20
9863.57
 11
-24523.457
 21
9863.57
  0
LINE
  8
┌▓È4
  6
CONTINUOUS
 10
-24523.457
 20
9863.57
 11
-24521.79025
 21
9861.9035
  0
LINE
  8
┌▓È4
  6
CONTINUOUS
 10
-24521.79025
 20
9861.9035
 11
-24520.1235
 21
9860.23675
  0
LINE
  8
┌▓È4
  6
CONTINUOUS
 10
-24520.1235
 20
9860.23675
 11
-24518.457
 21
9858.57
  0
LINE
  8
┌▓È4
  6
CONTINUOUS
 10
-24518.457
 20
9858.57
 11
-24516.79025
 21
9856.9035
  0
LINE
  8
┌▓È4
  6
CONTINUOUS
 10
-24516.79025
 20
9856.9035
 11
-24515.1235
 21
9855.23675
  0
LINE
  8
┌▓È4
  6
CONTINUOUS
 10
-24515.1235
 20
9855.23675
 11
-24515.1235
 21
9851.9035
  0
LINE
  8
┌▓È4
  6
CONTINUOUS
 10
-24515.1235
 20
9851.9035
 11
-24515.1235
 21
9850.23675
  0
LINE
  8
┌▓È4
  6
CONTINUOUS
 10
-24515.1235
 20
9850.23675
 11
-24515.1235
 21
9848.57
  0
LINE
  8
┌▓È4
  6
CONTINUOUS
 10
-24515.1235
 20
9848.57
 11
-24515.1235
 21
9845.23675
  0
LINE
  8
┌▓È4
  6
CONTINUOUS
 10
-24515.1235
 20
9845.23675
 11
-24516.79025
 21
9843.57
  0
LINE
  8
┌▓È4
  6
CONTINUOUS
 10
-24516.79025
 20
9843.57
 11
-24518.457
 21
9841.9035
  0
LINE
  8
┌▓È4
  6
CONTINUOUS
 10
-24518.457
 20
9841.9035
 11
-24520.1235
 21
9840.23675
  0
LINE
  8
┌▓È4
  6
CONTINUOUS
 10
-24520.1235
 20
9840.23675
 11
-24521.79025
 21
9838.57
  0
LINE
  8
┌▓È4
  6
CONTINUOUS
 10
-24521.79025
 20
9838.57
 11
-24523.457
 21
9836.9035
  0
LINE
  8
┌▓È4
  6
CONTINUOUS
 10
-24523.457
 20
9836.9035
 11
-24526.79025
 21
9836.9035
  0
LINE
  8
┌▓È4
  6
CONTINUOUS
 10
-24526.79025
 20
9836.9035
 11
-24528.457
 21
9836.9035
  0
LINE
  8
┌▓È4
  6
CONTINUOUS
 10
-24528.457
 20
9836.9035
 11
-24530.1235
 21
9836.9035
  0
LINE
  8
┌▓È4
  6
CONTINUOUS
 10
-24530.1235
 20
9836.9035
 11
-24533.457
 21
9836.9035
  0
LINE
  8
┌▓È4
  6
CONTINUOUS
 10
-24533.457
 20
9836.9035
 11
-24535.1235
 21
9838.57
  0
LINE
  8
┌▓È4
  6
CONTINUOUS
 10
-24535.1235
 20
9838.57
 11
-24536.79025
 21
9840.23675
  0
LINE
  8
┌▓È4
  6
CONTINUOUS
 10
-24536.79025
 20
9840.23675
 11
-24538.457
 21
9841.9035
  0
LINE
  8
┌▓È4
  6
CONTINUOUS
 10
-24538.457
 20
9841.9035
 11
-24540.1235
 21
9843.57
  0
LINE
  8
┌▓È4
  6
CONTINUOUS
 10
-24540.1235
 20
9843.57
 11
-24541.79025
 21
9845.23675
  0
LINE
  8
┌▓È4
  6
CONTINUOUS
 10
-24541.79025
 20
9845.23675
 11
-24541.79025
 21
9848.57
  0
LINE
  8
┌▓È4
  6
CONTINUOUS
 10
-24541.79025
 20
9848.57
 11
-24541.79025
 21
9850.23675
  0
ENDBLK
  0
BLOCK
  2
*GRP_0030
 70
    65
 10
0.0
 20
0.0
  0
LINE
  8
┌▓È4
  6
CONTINUOUS
 10
-24541.79025
 20
10183.57
 11
-24541.79025
 21
10185.23675
  0
LINE
  8
┌▓È4
  6
CONTINUOUS
 10
-24541.79025
 20
10185.23675
 11
-24541.79025
 21
10188.57
  0
LINE
  8
┌▓È4
  6
CONTINUOUS
 10
-24541.79025
 20
10188.57
 11
-24540.1235
 21
10190.23675
  0
LINE
  8
┌▓È4
  6
CONTINUOUS
 10
-24540.1235
 20
10190.23675
 11
-24538.457
 21
10191.9035
  0
LINE
  8
┌▓È4
  6
CONTINUOUS
 10
-24538.457
 20
10191.9035
 11
-24536.79025
 21
10193.57
  0
LINE
  8
┌▓È4
  6
CONTINUOUS
 10
-24536.79025
 20
10193.57
 11
-24535.1235
 21
10195.23675
  0
LINE
  8
┌▓È4
  6
CONTINUOUS
 10
-24535.1235
 20
10195.23675
 11
-24533.457
 21
10196.9035
  0
LINE
  8
┌▓È4
  6
CONTINUOUS
 10
-24533.457
 20
10196.9035
 11
-24530.1235
 21
10196.9035
  0
LINE
  8
┌▓È4
  6
CONTINUOUS
 10
-24530.1235
 20
10196.9035
 11
-24528.457
 21
10196.9035
  0
LINE
  8
┌▓È4
  6
CONTINUOUS
 10
-24528.457
 20
10196.9035
 11
-24526.79025
 21
10196.9035
  0
LINE
  8
┌▓È4
  6
CONTINUOUS
 10
-24526.79025
 20
10196.9035
 11
-24523.457
 21
10196.9035
  0
LINE
  8
┌▓È4
  6
CONTINUOUS
 10
-24523.457
 20
10196.9035
 11
-24521.79025
 21
10195.23675
  0
LINE
  8
┌▓È4
  6
CONTINUOUS
 10
-24521.79025
 20
10195.23675
 11
-24520.1235
 21
10193.57
  0
LINE
  8
┌▓È4
  6
CONTINUOUS
 10
-24520.1235
 20
10193.57
 11
-24518.457
 21
10191.9035
  0
LINE
  8
┌▓È4
  6
CONTINUOUS
 10
-24518.457
 20
10191.9035
 11
-24516.79025
 21
10190.23675
  0
LINE
  8
┌▓È4
  6
CONTINUOUS
 10
-24516.79025
 20
10190.23675
 11
-24515.1235
 21
10188.57
  0
LINE
  8
┌▓È4
  6
CONTINUOUS
 10
-24515.1235
 20
10188.57
 11
-24515.1235
 21
10185.23675
  0
LINE
  8
┌▓È4
  6
CONTINUOUS
 10
-24515.1235
 20
10185.23675
 11
-24515.1235
 21
10183.57
  0
LINE
  8
┌▓È4
  6
CONTINUOUS
 10
-24515.1235
 20
10183.57
 11
-24515.1235
 21
10181.9035
  0
LINE
  8
┌▓È4
  6
CONTINUOUS
 10
-24515.1235
 20
10181.9035
 11
-24515.1235
 21
10178.57
  0
LINE
  8
┌▓È4
  6
CONTINUOUS
 10
-24515.1235
 20
10178.57
 11
-24516.79025
 21
10176.9035
  0
LINE
  8
┌▓È4
  6
CONTINUOUS
 10
-24516.79025
 20
10176.9035
 11
-24518.457
 21
10175.23675
  0
LINE
  8
┌▓È4
  6
CONTINUOUS
 10
-24518.457
 20
10175.23675
 11
-24520.1235
 21
10173.57
  0
LINE
  8
┌▓È4
  6
CONTINUOUS
 10
-24520.1235
 20
10173.57
 11
-24521.79025
 21
10171.9035
  0
LINE
  8
┌▓È4
  6
CONTINUOUS
 10
-24521.79025
 20
10171.9035
 11
-24523.457
 21
10170.23675
  0
LINE
  8
┌▓È4
  6
CONTINUOUS
 10
-24523.457
 20
10170.23675
 11
-24526.79025
 21
10170.23675
  0
LINE
  8
┌▓È4
  6
CONTINUOUS
 10
-24526.79025
 20
10170.23675
 11
-24528.457
 21
10170.23675
  0
LINE
  8
┌▓È4
  6
CONTINUOUS
 10
-24528.457
 20
10170.23675
 11
-24530.1235
 21
10170.23675
  0
LINE
  8
┌▓È4
  6
CONTINUOUS
 10
-24530.1235
 20
10170.23675
 11
-24533.457
 21
10170.23675
  0
LINE
  8
┌▓È4
  6
CONTINUOUS
 10
-24533.457
 20
10170.23675
 11
-24535.1235
 21
10171.9035
  0
LINE
  8
┌▓È4
  6
CONTINUOUS
 10
-24535.1235
 20
10171.9035
 11
-24536.79025
 21
10173.57
  0
LINE
  8
┌▓È4
  6
CONTINUOUS
 10
-24536.79025
 20
10173.57
 11
-24538.457
 21
10175.23675
  0
LINE
  8
┌▓È4
  6
CONTINUOUS
 10
-24538.457
 20
10175.23675
 11
-24540.1235
 21
10176.9035
  0
LINE
  8
┌▓È4
  6
CONTINUOUS
 10
-24540.1235
 20
10176.9035
 11
-24541.79025
 21
10178.57
  0
LINE
  8
┌▓È4
  6
CONTINUOUS
 10
-24541.79025
 20
10178.57
 11
-24541.79025
 21
10181.9035
  0
LINE
  8
┌▓È4
  6
CONTINUOUS
 10
-24541.79025
 20
10181.9035
 11
-24541.79025
 21
10183.57
  0
ENDBLK
  0
BLOCK
  2
*GRP_0031
 70
    65
 10
0.0
 20
0.0
  0
LINE
  8
┌▓È4
  6
CONTINUOUS
 10
-24541.79025
 20
10596.9035
 11
-24541.79025
 21
10598.57
  0
LINE
  8
┌▓È4
  6
CONTINUOUS
 10
-24541.79025
 20
10598.57
 11
-24541.79025
 21
10601.9035
  0
LINE
  8
┌▓È4
  6
CONTINUOUS
 10
-24541.79025
 20
10601.9035
 11
-24540.1235
 21
10603.57
  0
LINE
  8
┌▓È4
  6
CONTINUOUS
 10
-24540.1235
 20
10603.57
 11
-24538.457
 21
10605.23675
  0
LINE
  8
┌▓È4
  6
CONTINUOUS
 10
-24538.457
 20
10605.23675
 11
-24536.79025
 21
10606.9035
  0
LINE
  8
┌▓È4
  6
CONTINUOUS
 10
-24536.79025
 20
10606.9035
 11
-24535.1235
 21
10608.57
  0
LINE
  8
┌▓È4
  6
CONTINUOUS
 10
-24535.1235
 20
10608.57
 11
-24533.457
 21
10610.23675
  0
LINE
  8
┌▓È4
  6
CONTINUOUS
 10
-24533.457
 20
10610.23675
 11
-24530.1235
 21
10610.23675
  0
LINE
  8
┌▓È4
  6
CONTINUOUS
 10
-24530.1235
 20
10610.23675
 11
-24528.457
 21
10610.23675
  0
LINE
  8
┌▓È4
  6
CONTINUOUS
 10
-24528.457
 20
10610.23675
 11
-24526.79025
 21
10610.23675
  0
LINE
  8
┌▓È4
  6
CONTINUOUS
 10
-24526.79025
 20
10610.23675
 11
-24523.457
 21
10610.23675
  0
LINE
  8
┌▓È4
  6
CONTINUOUS
 10
-24523.457
 20
10610.23675
 11
-24521.79025
 21
10608.57
  0
LINE
  8
┌▓È4
  6
CONTINUOUS
 10
-24521.79025
 20
10608.57
 11
-24520.1235
 21
10606.9035
  0
LINE
  8
┌▓È4
  6
CONTINUOUS
 10
-24520.1235
 20
10606.9035
 11
-24518.457
 21
10605.23675
  0
LINE
  8
┌▓È4
  6
CONTINUOUS
 10
-24518.457
 20
10605.23675
 11
-24516.79025
 21
10603.57
  0
LINE
  8
┌▓È4
  6
CONTINUOUS
 10
-24516.79025
 20
10603.57
 11
-24515.1235
 21
10601.9035
  0
LINE
  8
┌▓È4
  6
CONTINUOUS
 10
-24515.1235
 20
10601.9035
 11
-24515.1235
 21
10598.57
  0
LINE
  8
┌▓È4
  6
CONTINUOUS
 10
-24515.1235
 20
10598.57
 11
-24515.1235
 21
10596.9035
  0
LINE
  8
┌▓È4
  6
CONTINUOUS
 10
-24515.1235
 20
10596.9035
 11
-24515.1235
 21
10595.23675
  0
LINE
  8
┌▓È4
  6
CONTINUOUS
 10
-24515.1235
 20
10595.23675
 11
-24515.1235
 21
10591.9035
  0
LINE
  8
┌▓È4
  6
CONTINUOUS
 10
-24515.1235
 20
10591.9035
 11
-24516.79025
 21
10590.23675
  0
LINE
  8
┌▓È4
  6
CONTINUOUS
 10
-24516.79025
 20
10590.23675
 11
-24518.457
 21
10588.57
  0
LINE
  8
┌▓È4
  6
CONTINUOUS
 10
-24518.457
 20
10588.57
 11
-24520.1235
 21
10586.9035
  0
LINE
  8
┌▓È4
  6
CONTINUOUS
 10
-24520.1235
 20
10586.9035
 11
-24521.79025
 21
10585.23675
  0
LINE
  8
┌▓È4
  6
CONTINUOUS
 10
-24521.79025
 20
10585.23675
 11
-24523.457
 21
10583.57
  0
LINE
  8
┌▓È4
  6
CONTINUOUS
 10
-24523.457
 20
10583.57
 11
-24526.79025
 21
10583.57
  0
LINE
  8
┌▓È4
  6
CONTINUOUS
 10
-24526.79025
 20
10583.57
 11
-24528.457
 21
10583.57
  0
LINE
  8
┌▓È4
  6
CONTINUOUS
 10
-24528.457
 20
10583.57
 11
-24530.1235
 21
10583.57
  0
LINE
  8
┌▓È4
  6
CONTINUOUS
 10
-24530.1235
 20
10583.57
 11
-24533.457
 21
10583.57
  0
LINE
  8
┌▓È4
  6
CONTINUOUS
 10
-24533.457
 20
10583.57
 11
-24535.1235
 21
10585.23675
  0
LINE
  8
┌▓È4
  6
CONTINUOUS
 10
-24535.1235
 20
10585.23675
 11
-24536.79025
 21
10586.9035
  0
LINE
  8
┌▓È4
  6
CONTINUOUS
 10
-24536.79025
 20
10586.9035
 11
-24538.457
 21
10588.57
  0
LINE
  8
┌▓È4
  6
CONTINUOUS
 10
-24538.457
 20
10588.57
 11
-24540.1235
 21
10590.23675
  0
LINE
  8
┌▓È4
  6
CONTINUOUS
 10
-24540.1235
 20
10590.23675
 11
-24541.79025
 21
10591.9035
  0
LINE
  8
┌▓È4
  6
CONTINUOUS
 10
-24541.79025
 20
10591.9035
 11
-24541.79025
 21
10595.23675
  0
LINE
  8
┌▓È4
  6
CONTINUOUS
 10
-24541.79025
 20
10595.23675
 11
-24541.79025
 21
10596.9035
  0
ENDBLK
  0
BLOCK
  2
*GRP_0032
 70
    65
 10
0.0
 20
0.0
  0
LINE
  8
┌▓È4
  6
CONTINUOUS
 10
-24541.79025
 20
10430.23675
 11
-24541.79025
 21
10431.9035
  0
LINE
  8
┌▓È4
  6
CONTINUOUS
 10
-24541.79025
 20
10431.9035
 11
-24541.79025
 21
10435.23675
  0
LINE
  8
┌▓È4
  6
CONTINUOUS
 10
-24541.79025
 20
10435.23675
 11
-24540.1235
 21
10436.9035
  0
LINE
  8
┌▓È4
  6
CONTINUOUS
 10
-24540.1235
 20
10436.9035
 11
-24538.457
 21
10438.57
  0
LINE
  8
┌▓È4
  6
CONTINUOUS
 10
-24538.457
 20
10438.57
 11
-24536.79025
 21
10440.23675
  0
LINE
  8
┌▓È4
  6
CONTINUOUS
 10
-24536.79025
 20
10440.23675
 11
-24535.1235
 21
10441.9035
  0
LINE
  8
┌▓È4
  6
CONTINUOUS
 10
-24535.1235
 20
10441.9035
 11
-24533.457
 21
10443.57
  0
LINE
  8
┌▓È4
  6
CONTINUOUS
 10
-24533.457
 20
10443.57
 11
-24530.1235
 21
10443.57
  0
LINE
  8
┌▓È4
  6
CONTINUOUS
 10
-24530.1235
 20
10443.57
 11
-24528.457
 21
10443.57
  0
LINE
  8
┌▓È4
  6
CONTINUOUS
 10
-24528.457
 20
10443.57
 11
-24526.79025
 21
10443.57
  0
LINE
  8
┌▓È4
  6
CONTINUOUS
 10
-24526.79025
 20
10443.57
 11
-24523.457
 21
10443.57
  0
LINE
  8
┌▓È4
  6
CONTINUOUS
 10
-24523.457
 20
10443.57
 11
-24521.79025
 21
10441.9035
  0
LINE
  8
┌▓È4
  6
CONTINUOUS
 10
-24521.79025
 20
10441.9035
 11
-24520.1235
 21
10440.23675
  0
LINE
  8
┌▓È4
  6
CONTINUOUS
 10
-24520.1235
 20
10440.23675
 11
-24518.457
 21
10438.57
  0
LINE
  8
┌▓È4
  6
CONTINUOUS
 10
-24518.457
 20
10438.57
 11
-24516.79025
 21
10436.9035
  0
LINE
  8
┌▓È4
  6
CONTINUOUS
 10
-24516.79025
 20
10436.9035
 11
-24515.1235
 21
10435.23675
  0
LINE
  8
┌▓È4
  6
CONTINUOUS
 10
-24515.1235
 20
10435.23675
 11
-24515.1235
 21
10431.9035
  0
LINE
  8
┌▓È4
  6
CONTINUOUS
 10
-24515.1235
 20
10431.9035
 11
-24515.1235
 21
10430.23675
  0
LINE
  8
┌▓È4
  6
CONTINUOUS
 10
-24515.1235
 20
10430.23675
 11
-24515.1235
 21
10428.57
  0
LINE
  8
┌▓È4
  6
CONTINUOUS
 10
-24515.1235
 20
10428.57
 11
-24515.1235
 21
10425.23675
  0
LINE
  8
┌▓È4
  6
CONTINUOUS
 10
-24515.1235
 20
10425.23675
 11
-24516.79025
 21
10423.57
  0
LINE
  8
┌▓È4
  6
CONTINUOUS
 10
-24516.79025
 20
10423.57
 11
-24518.457
 21
10421.9035
  0
LINE
  8
┌▓È4
  6
CONTINUOUS
 10
-24518.457
 20
10421.9035
 11
-24520.1235
 21
10420.23675
  0
LINE
  8
┌▓È4
  6
CONTINUOUS
 10
-24520.1235
 20
10420.23675
 11
-24521.79025
 21
10418.57
  0
LINE
  8
┌▓È4
  6
CONTINUOUS
 10
-24521.79025
 20
10418.57
 11
-24523.457
 21
10416.9035
  0
LINE
  8
┌▓È4
  6
CONTINUOUS
 10
-24523.457
 20
10416.9035
 11
-24526.79025
 21
10416.9035
  0
LINE
  8
┌▓È4
  6
CONTINUOUS
 10
-24526.79025
 20
10416.9035
 11
-24528.457
 21
10416.9035
  0
LINE
  8
┌▓È4
  6
CONTINUOUS
 10
-24528.457
 20
10416.9035
 11
-24530.1235
 21
10416.9035
  0
LINE
  8
┌▓È4
  6
CONTINUOUS
 10
-24530.1235
 20
10416.9035
 11
-24533.457
 21
10416.9035
  0
LINE
  8
┌▓È4
  6
CONTINUOUS
 10
-24533.457
 20
10416.9035
 11
-24535.1235
 21
10418.57
  0
LINE
  8
┌▓È4
  6
CONTINUOUS
 10
-24535.1235
 20
10418.57
 11
-24536.79025
 21
10420.23675
  0
LINE
  8
┌▓È4
  6
CONTINUOUS
 10
-24536.79025
 20
10420.23675
 11
-24538.457
 21
10421.9035
  0
LINE
  8
┌▓È4
  6
CONTINUOUS
 10
-24538.457
 20
10421.9035
 11
-24540.1235
 21
10423.57
  0
LINE
  8
┌▓È4
  6
CONTINUOUS
 10
-24540.1235
 20
10423.57
 11
-24541.79025
 21
10425.23675
  0
LINE
  8
┌▓È4
  6
CONTINUOUS
 10
-24541.79025
 20
10425.23675
 11
-24541.79025
 21
10428.57
  0
LINE
  8
┌▓È4
  6
CONTINUOUS
 10
-24541.79025
 20
10428.57
 11
-24541.79025
 21
10430.23675
  0
ENDBLK
  0
BLOCK
  2
*GRP_0033
 70
    65
 10
0.0
 20
0.0
  0
LINE
  8
┌▓È4
  6
CONTINUOUS
 10
-24541.79025
 20
10763.57
 11
-24541.79025
 21
10765.23675
  0
LINE
  8
┌▓È4
  6
CONTINUOUS
 10
-24541.79025
 20
10765.23675
 11
-24541.79025
 21
10768.57
  0
LINE
  8
┌▓È4
  6
CONTINUOUS
 10
-24541.79025
 20
10768.57
 11
-24540.1235
 21
10770.23675
  0
LINE
  8
┌▓È4
  6
CONTINUOUS
 10
-24540.1235
 20
10770.23675
 11
-24538.457
 21
10771.9035
  0
LINE
  8
┌▓È4
  6
CONTINUOUS
 10
-24538.457
 20
10771.9035
 11
-24536.79025
 21
10773.57
  0
LINE
  8
┌▓È4
  6
CONTINUOUS
 10
-24536.79025
 20
10773.57
 11
-24535.1235
 21
10775.23675
  0
LINE
  8
┌▓È4
  6
CONTINUOUS
 10
-24535.1235
 20
10775.23675
 11
-24533.457
 21
10776.9035
  0
LINE
  8
┌▓È4
  6
CONTINUOUS
 10
-24533.457
 20
10776.9035
 11
-24530.1235
 21
10776.9035
  0
LINE
  8
┌▓È4
  6
CONTINUOUS
 10
-24530.1235
 20
10776.9035
 11
-24528.457
 21
10776.9035
  0
LINE
  8
┌▓È4
  6
CONTINUOUS
 10
-24528.457
 20
10776.9035
 11
-24526.79025
 21
10776.9035
  0
LINE
  8
┌▓È4
  6
CONTINUOUS
 10
-24526.79025
 20
10776.9035
 11
-24523.457
 21
10776.9035
  0
LINE
  8
┌▓È4
  6
CONTINUOUS
 10
-24523.457
 20
10776.9035
 11
-24521.79025
 21
10775.23675
  0
LINE
  8
┌▓È4
  6
CONTINUOUS
 10
-24521.79025
 20
10775.23675
 11
-24520.1235
 21
10773.57
  0
LINE
  8
┌▓È4
  6
CONTINUOUS
 10
-24520.1235
 20
10773.57
 11
-24518.457
 21
10771.9035
  0
LINE
  8
┌▓È4
  6
CONTINUOUS
 10
-24518.457
 20
10771.9035
 11
-24516.79025
 21
10770.23675
  0
LINE
  8
┌▓È4
  6
CONTINUOUS
 10
-24516.79025
 20
10770.23675
 11
-24515.1235
 21
10768.57
  0
LINE
  8
┌▓È4
  6
CONTINUOUS
 10
-24515.1235
 20
10768.57
 11
-24515.1235
 21
10765.23675
  0
LINE
  8
┌▓È4
  6
CONTINUOUS
 10
-24515.1235
 20
10765.23675
 11
-24515.1235
 21
10763.57
  0
LINE
  8
┌▓È4
  6
CONTINUOUS
 10
-24515.1235
 20
10763.57
 11
-24515.1235
 21
10761.9035
  0
LINE
  8
┌▓È4
  6
CONTINUOUS
 10
-24515.1235
 20
10761.9035
 11
-24515.1235
 21
10758.57
  0
LINE
  8
┌▓È4
  6
CONTINUOUS
 10
-24515.1235
 20
10758.57
 11
-24516.79025
 21
10756.9035
  0
LINE
  8
┌▓È4
  6
CONTINUOUS
 10
-24516.79025
 20
10756.9035
 11
-24518.457
 21
10755.23675
  0
LINE
  8
┌▓È4
  6
CONTINUOUS
 10
-24518.457
 20
10755.23675
 11
-24520.1235
 21
10753.57
  0
LINE
  8
┌▓È4
  6
CONTINUOUS
 10
-24520.1235
 20
10753.57
 11
-24521.79025
 21
10751.9035
  0
LINE
  8
┌▓È4
  6
CONTINUOUS
 10
-24521.79025
 20
10751.9035
 11
-24523.457
 21
10750.23675
  0
LINE
  8
┌▓È4
  6
CONTINUOUS
 10
-24523.457
 20
10750.23675
 11
-24526.79025
 21
10750.23675
  0
LINE
  8
┌▓È4
  6
CONTINUOUS
 10
-24526.79025
 20
10750.23675
 11
-24528.457
 21
10750.23675
  0
LINE
  8
┌▓È4
  6
CONTINUOUS
 10
-24528.457
 20
10750.23675
 11
-24530.1235
 21
10750.23675
  0
LINE
  8
┌▓È4
  6
CONTINUOUS
 10
-24530.1235
 20
10750.23675
 11
-24533.457
 21
10750.23675
  0
LINE
  8
┌▓È4
  6
CONTINUOUS
 10
-24533.457
 20
10750.23675
 11
-24535.1235
 21
10751.9035
  0
LINE
  8
┌▓È4
  6
CONTINUOUS
 10
-24535.1235
 20
10751.9035
 11
-24536.79025
 21
10753.57
  0
LINE
  8
┌▓È4
  6
CONTINUOUS
 10
-24536.79025
 20
10753.57
 11
-24538.457
 21
10755.23675
  0
LINE
  8
┌▓È4
  6
CONTINUOUS
 10
-24538.457
 20
10755.23675
 11
-24540.1235
 21
10756.9035
  0
LINE
  8
┌▓È4
  6
CONTINUOUS
 10
-24540.1235
 20
10756.9035
 11
-24541.79025
 21
10758.57
  0
LINE
  8
┌▓È4
  6
CONTINUOUS
 10
-24541.79025
 20
10758.57
 11
-24541.79025
 21
10761.9035
  0
LINE
  8
┌▓È4
  6
CONTINUOUS
 10
-24541.79025
 20
10761.9035
 11
-24541.79025
 21
10763.57
  0
ENDBLK
  0
BLOCK
  2
*GRP_0034
 70
    65
 10
0.0
 20
0.0
  0
LINE
  8
┌▓È4
  6
CONTINUOUS
 10
-24541.79025
 20
11176.9035
 11
-24541.79025
 21
11178.57
  0
LINE
  8
┌▓È4
  6
CONTINUOUS
 10
-24541.79025
 20
11178.57
 11
-24541.79025
 21
11181.9035
  0
LINE
  8
┌▓È4
  6
CONTINUOUS
 10
-24541.79025
 20
11181.9035
 11
-24540.1235
 21
11183.57
  0
LINE
  8
┌▓È4
  6
CONTINUOUS
 10
-24540.1235
 20
11183.57
 11
-24538.457
 21
11185.23675
  0
LINE
  8
┌▓È4
  6
CONTINUOUS
 10
-24538.457
 20
11185.23675
 11
-24536.79025
 21
11186.9035
  0
LINE
  8
┌▓È4
  6
CONTINUOUS
 10
-24536.79025
 20
11186.9035
 11
-24535.1235
 21
11188.57
  0
LINE
  8
┌▓È4
  6
CONTINUOUS
 10
-24535.1235
 20
11188.57
 11
-24533.457
 21
11190.23675
  0
LINE
  8
┌▓È4
  6
CONTINUOUS
 10
-24533.457
 20
11190.23675
 11
-24530.1235
 21
11190.23675
  0
LINE
  8
┌▓È4
  6
CONTINUOUS
 10
-24530.1235
 20
11190.23675
 11
-24528.457
 21
11190.23675
  0
LINE
  8
┌▓È4
  6
CONTINUOUS
 10
-24528.457
 20
11190.23675
 11
-24526.79025
 21
11190.23675
  0
LINE
  8
┌▓È4
  6
CONTINUOUS
 10
-24526.79025
 20
11190.23675
 11
-24523.457
 21
11190.23675
  0
LINE
  8
┌▓È4
  6
CONTINUOUS
 10
-24523.457
 20
11190.23675
 11
-24521.79025
 21
11188.57
  0
LINE
  8
┌▓È4
  6
CONTINUOUS
 10
-24521.79025
 20
11188.57
 11
-24520.1235
 21
11186.9035
  0
LINE
  8
┌▓È4
  6
CONTINUOUS
 10
-24520.1235
 20
11186.9035
 11
-24518.457
 21
11185.23675
  0
LINE
  8
┌▓È4
  6
CONTINUOUS
 10
-24518.457
 20
11185.23675
 11
-24516.79025
 21
11183.57
  0
LINE
  8
┌▓È4
  6
CONTINUOUS
 10
-24516.79025
 20
11183.57
 11
-24515.1235
 21
11181.9035
  0
LINE
  8
┌▓È4
  6
CONTINUOUS
 10
-24515.1235
 20
11181.9035
 11
-24515.1235
 21
11178.57
  0
LINE
  8
┌▓È4
  6
CONTINUOUS
 10
-24515.1235
 20
11178.57
 11
-24515.1235
 21
11176.9035
  0
LINE
  8
┌▓È4
  6
CONTINUOUS
 10
-24515.1235
 20
11176.9035
 11
-24515.1235
 21
11175.23675
  0
LINE
  8
┌▓È4
  6
CONTINUOUS
 10
-24515.1235
 20
11175.23675
 11
-24515.1235
 21
11171.9035
  0
LINE
  8
┌▓È4
  6
CONTINUOUS
 10
-24515.1235
 20
11171.9035
 11
-24516.79025
 21
11170.23675
  0
LINE
  8
┌▓È4
  6
CONTINUOUS
 10
-24516.79025
 20
11170.23675
 11
-24518.457
 21
11168.57
  0
LINE
  8
┌▓È4
  6
CONTINUOUS
 10
-24518.457
 20
11168.57
 11
-24520.1235
 21
11166.9035
  0
LINE
  8
┌▓È4
  6
CONTINUOUS
 10
-24520.1235
 20
11166.9035
 11
-24521.79025
 21
11165.23675
  0
LINE
  8
┌▓È4
  6
CONTINUOUS
 10
-24521.79025
 20
11165.23675
 11
-24523.457
 21
11163.57
  0
LINE
  8
┌▓È4
  6
CONTINUOUS
 10
-24523.457
 20
11163.57
 11
-24526.79025
 21
11163.57
  0
LINE
  8
┌▓È4
  6
CONTINUOUS
 10
-24526.79025
 20
11163.57
 11
-24528.457
 21
11163.57
  0
LINE
  8
┌▓È4
  6
CONTINUOUS
 10
-24528.457
 20
11163.57
 11
-24530.1235
 21
11163.57
  0
LINE
  8
┌▓È4
  6
CONTINUOUS
 10
-24530.1235
 20
11163.57
 11
-24533.457
 21
11163.57
  0
LINE
  8
┌▓È4
  6
CONTINUOUS
 10
-24533.457
 20
11163.57
 11
-24535.1235
 21
11165.23675
  0
LINE
  8
┌▓È4
  6
CONTINUOUS
 10
-24535.1235
 20
11165.23675
 11
-24536.79025
 21
11166.9035
  0
LINE
  8
┌▓È4
  6
CONTINUOUS
 10
-24536.79025
 20
11166.9035
 11
-24538.457
 21
11168.57
  0
LINE
  8
┌▓È4
  6
CONTINUOUS
 10
-24538.457
 20
11168.57
 11
-24540.1235
 21
11170.23675
  0
LINE
  8
┌▓È4
  6
CONTINUOUS
 10
-24540.1235
 20
11170.23675
 11
-24541.79025
 21
11171.9035
  0
LINE
  8
┌▓È4
  6
CONTINUOUS
 10
-24541.79025
 20
11171.9035
 11
-24541.79025
 21
11175.23675
  0
LINE
  8
┌▓È4
  6
CONTINUOUS
 10
-24541.79025
 20
11175.23675
 11
-24541.79025
 21
11176.9035
  0
ENDBLK
  0
BLOCK
  2
*GRP_0035
 70
    65
 10
0.0
 20
0.0
  0
LINE
  8
┌▓È4
  6
CONTINUOUS
 10
-24541.79025
 20
11010.23675
 11
-24541.79025
 21
11011.9035
  0
LINE
  8
┌▓È4
  6
CONTINUOUS
 10
-24541.79025
 20
11011.9035
 11
-24541.79025
 21
11015.23675
  0
LINE
  8
┌▓È4
  6
CONTINUOUS
 10
-24541.79025
 20
11015.23675
 11
-24540.1235
 21
11016.9035
  0
LINE
  8
┌▓È4
  6
CONTINUOUS
 10
-24540.1235
 20
11016.9035
 11
-24538.457
 21
11018.57
  0
LINE
  8
┌▓È4
  6
CONTINUOUS
 10
-24538.457
 20
11018.57
 11
-24536.79025
 21
11020.23675
  0
LINE
  8
┌▓È4
  6
CONTINUOUS
 10
-24536.79025
 20
11020.23675
 11
-24535.1235
 21
11021.9035
  0
LINE
  8
┌▓È4
  6
CONTINUOUS
 10
-24535.1235
 20
11021.9035
 11
-24533.457
 21
11023.57
  0
LINE
  8
┌▓È4
  6
CONTINUOUS
 10
-24533.457
 20
11023.57
 11
-24530.1235
 21
11023.57
  0
LINE
  8
┌▓È4
  6
CONTINUOUS
 10
-24530.1235
 20
11023.57
 11
-24528.457
 21
11023.57
  0
LINE
  8
┌▓È4
  6
CONTINUOUS
 10
-24528.457
 20
11023.57
 11
-24526.79025
 21
11023.57
  0
LINE
  8
┌▓È4
  6
CONTINUOUS
 10
-24526.79025
 20
11023.57
 11
-24523.457
 21
11023.57
  0
LINE
  8
┌▓È4
  6
CONTINUOUS
 10
-24523.457
 20
11023.57
 11
-24521.79025
 21
11021.9035
  0
LINE
  8
┌▓È4
  6
CONTINUOUS
 10
-24521.79025
 20
11021.9035
 11
-24520.1235
 21
11020.23675
  0
LINE
  8
┌▓È4
  6
CONTINUOUS
 10
-24520.1235
 20
11020.23675
 11
-24518.457
 21
11018.57
  0
LINE
  8
┌▓È4
  6
CONTINUOUS
 10
-24518.457
 20
11018.57
 11
-24516.79025
 21
11016.9035
  0
LINE
  8
┌▓È4
  6
CONTINUOUS
 10
-24516.79025
 20
11016.9035
 11
-24515.1235
 21
11015.23675
  0
LINE
  8
┌▓È4
  6
CONTINUOUS
 10
-24515.1235
 20
11015.23675
 11
-24515.1235
 21
11011.9035
  0
LINE
  8
┌▓È4
  6
CONTINUOUS
 10
-24515.1235
 20
11011.9035
 11
-24515.1235
 21
11010.23675
  0
LINE
  8
┌▓È4
  6
CONTINUOUS
 10
-24515.1235
 20
11010.23675
 11
-24515.1235
 21
11008.57
  0
LINE
  8
┌▓È4
  6
CONTINUOUS
 10
-24515.1235
 20
11008.57
 11
-24515.1235
 21
11005.23675
  0
LINE
  8
┌▓È4
  6
CONTINUOUS
 10
-24515.1235
 20
11005.23675
 11
-24516.79025
 21
11003.57
  0
LINE
  8
┌▓È4
  6
CONTINUOUS
 10
-24516.79025
 20
11003.57
 11
-24518.457
 21
11001.9035
  0
LINE
  8
┌▓È4
  6
CONTINUOUS
 10
-24518.457
 20
11001.9035
 11
-24520.1235
 21
11000.23675
  0
LINE
  8
┌▓È4
  6
CONTINUOUS
 10
-24520.1235
 20
11000.23675
 11
-24521.79025
 21
10998.57
  0
LINE
  8
┌▓È4
  6
CONTINUOUS
 10
-24521.79025
 20
10998.57
 11
-24523.457
 21
10996.9035
  0
LINE
  8
┌▓È4
  6
CONTINUOUS
 10
-24523.457
 20
10996.9035
 11
-24526.79025
 21
10996.9035
  0
LINE
  8
┌▓È4
  6
CONTINUOUS
 10
-24526.79025
 20
10996.9035
 11
-24528.457
 21
10996.9035
  0
LINE
  8
┌▓È4
  6
CONTINUOUS
 10
-24528.457
 20
10996.9035
 11
-24530.1235
 21
10996.9035
  0
LINE
  8
┌▓È4
  6
CONTINUOUS
 10
-24530.1235
 20
10996.9035
 11
-24533.457
 21
10996.9035
  0
LINE
  8
┌▓È4
  6
CONTINUOUS
 10
-24533.457
 20
10996.9035
 11
-24535.1235
 21
10998.57
  0
LINE
  8
┌▓È4
  6
CONTINUOUS
 10
-24535.1235
 20
10998.57
 11
-24536.79025
 21
11000.23675
  0
LINE
  8
┌▓È4
  6
CONTINUOUS
 10
-24536.79025
 20
11000.23675
 11
-24538.457
 21
11001.9035
  0
LINE
  8
┌▓È4
  6
CONTINUOUS
 10
-24538.457
 20
11001.9035
 11
-24540.1235
 21
11003.57
  0
LINE
  8
┌▓È4
  6
CONTINUOUS
 10
-24540.1235
 20
11003.57
 11
-24541.79025
 21
11005.23675
  0
LINE
  8
┌▓È4
  6
CONTINUOUS
 10
-24541.79025
 20
11005.23675
 11
-24541.79025
 21
11008.57
  0
LINE
  8
┌▓È4
  6
CONTINUOUS
 10
-24541.79025
 20
11008.57
 11
-24541.79025
 21
11010.23675
  0
ENDBLK
  0
BLOCK
  2
*GRP_0036
 70
    65
 10
0.0
 20
0.0
  0
LINE
  8
┌▓È4
  6
CONTINUOUS
 10
-24541.79025
 20
11343.57
 11
-24541.79025
 21
11345.23675
  0
LINE
  8
┌▓È4
  6
CONTINUOUS
 10
-24541.79025
 20
11345.23675
 11
-24541.79025
 21
11348.57
  0
LINE
  8
┌▓È4
  6
CONTINUOUS
 10
-24541.79025
 20
11348.57
 11
-24540.1235
 21
11350.23675
  0
LINE
  8
┌▓È4
  6
CONTINUOUS
 10
-24540.1235
 20
11350.23675
 11
-24538.457
 21
11351.9035
  0
LINE
  8
┌▓È4
  6
CONTINUOUS
 10
-24538.457
 20
11351.9035
 11
-24536.79025
 21
11353.57
  0
LINE
  8
┌▓È4
  6
CONTINUOUS
 10
-24536.79025
 20
11353.57
 11
-24535.1235
 21
11355.23675
  0
LINE
  8
┌▓È4
  6
CONTINUOUS
 10
-24535.1235
 20
11355.23675
 11
-24533.457
 21
11356.9035
  0
LINE
  8
┌▓È4
  6
CONTINUOUS
 10
-24533.457
 20
11356.9035
 11
-24530.1235
 21
11356.9035
  0
LINE
  8
┌▓È4
  6
CONTINUOUS
 10
-24530.1235
 20
11356.9035
 11
-24528.457
 21
11356.9035
  0
LINE
  8
┌▓È4
  6
CONTINUOUS
 10
-24528.457
 20
11356.9035
 11
-24526.79025
 21
11356.9035
  0
LINE
  8
┌▓È4
  6
CONTINUOUS
 10
-24526.79025
 20
11356.9035
 11
-24523.457
 21
11356.9035
  0
LINE
  8
┌▓È4
  6
CONTINUOUS
 10
-24523.457
 20
11356.9035
 11
-24521.79025
 21
11355.23675
  0
LINE
  8
┌▓È4
  6
CONTINUOUS
 10
-24521.79025
 20
11355.23675
 11
-24520.1235
 21
11353.57
  0
LINE
  8
┌▓È4
  6
CONTINUOUS
 10
-24520.1235
 20
11353.57
 11
-24518.457
 21
11351.9035
  0
LINE
  8
┌▓È4
  6
CONTINUOUS
 10
-24518.457
 20
11351.9035
 11
-24516.79025
 21
11350.23675
  0
LINE
  8
┌▓È4
  6
CONTINUOUS
 10
-24516.79025
 20
11350.23675
 11
-24515.1235
 21
11348.57
  0
LINE
  8
┌▓È4
  6
CONTINUOUS
 10
-24515.1235
 20
11348.57
 11
-24515.1235
 21
11345.23675
  0
LINE
  8
┌▓È4
  6
CONTINUOUS
 10
-24515.1235
 20
11345.23675
 11
-24515.1235
 21
11343.57
  0
LINE
  8
┌▓È4
  6
CONTINUOUS
 10
-24515.1235
 20
11343.57
 11
-24515.1235
 21
11341.9035
  0
LINE
  8
┌▓È4
  6
CONTINUOUS
 10
-24515.1235
 20
11341.9035
 11
-24515.1235
 21
11338.57
  0
LINE
  8
┌▓È4
  6
CONTINUOUS
 10
-24515.1235
 20
11338.57
 11
-24516.79025
 21
11336.9035
  0
LINE
  8
┌▓È4
  6
CONTINUOUS
 10
-24516.79025
 20
11336.9035
 11
-24518.457
 21
11335.23675
  0
LINE
  8
┌▓È4
  6
CONTINUOUS
 10
-24518.457
 20
11335.23675
 11
-24520.1235
 21
11333.57
  0
LINE
  8
┌▓È4
  6
CONTINUOUS
 10
-24520.1235
 20
11333.57
 11
-24521.79025
 21
11331.9035
  0
LINE
  8
┌▓È4
  6
CONTINUOUS
 10
-24521.79025
 20
11331.9035
 11
-24523.457
 21
11330.23675
  0
LINE
  8
┌▓È4
  6
CONTINUOUS
 10
-24523.457
 20
11330.23675
 11
-24526.79025
 21
11330.23675
  0
LINE
  8
┌▓È4
  6
CONTINUOUS
 10
-24526.79025
 20
11330.23675
 11
-24528.457
 21
11330.23675
  0
LINE
  8
┌▓È4
  6
CONTINUOUS
 10
-24528.457
 20
11330.23675
 11
-24530.1235
 21
11330.23675
  0
LINE
  8
┌▓È4
  6
CONTINUOUS
 10
-24530.1235
 20
11330.23675
 11
-24533.457
 21
11330.23675
  0
LINE
  8
┌▓È4
  6
CONTINUOUS
 10
-24533.457
 20
11330.23675
 11
-24535.1235
 21
11331.9035
  0
LINE
  8
┌▓È4
  6
CONTINUOUS
 10
-24535.1235
 20
11331.9035
 11
-24536.79025
 21
11333.57
  0
LINE
  8
┌▓È4
  6
CONTINUOUS
 10
-24536.79025
 20
11333.57
 11
-24538.457
 21
11335.23675
  0
LINE
  8
┌▓È4
  6
CONTINUOUS
 10
-24538.457
 20
11335.23675
 11
-24540.1235
 21
11336.9035
  0
LINE
  8
┌▓È4
  6
CONTINUOUS
 10
-24540.1235
 20
11336.9035
 11
-24541.79025
 21
11338.57
  0
LINE
  8
┌▓È4
  6
CONTINUOUS
 10
-24541.79025
 20
11338.57
 11
-24541.79025
 21
11341.9035
  0
LINE
  8
┌▓È4
  6
CONTINUOUS
 10
-24541.79025
 20
11341.9035
 11
-24541.79025
 21
11343.57
  0
ENDBLK
  0
BLOCK
  2
*GRP_0037
 70
    65
 10
0.0
 20
0.0
  0
LINE
  8
┌▓È4
  6
CONTINUOUS
 10
-24961.79025
 20
9823.57025
 11
-24961.79025
 21
9825.23675
  0
LINE
  8
┌▓È4
  6
CONTINUOUS
 10
-24961.79025
 20
9825.23675
 11
-24961.79025
 21
9828.57025
  0
LINE
  8
┌▓È4
  6
CONTINUOUS
 10
-24961.79025
 20
9828.57025
 11
-24963.457
 21
9830.23675
  0
LINE
  8
┌▓È4
  6
CONTINUOUS
 10
-24963.457
 20
9830.23675
 11
-24965.1235
 21
9831.9035
  0
LINE
  8
┌▓È4
  6
CONTINUOUS
 10
-24965.1235
 20
9831.9035
 11
-24966.79025
 21
9833.57025
  0
LINE
  8
┌▓È4
  6
CONTINUOUS
 10
-24966.79025
 20
9833.57025
 11
-24968.457
 21
9835.23675
  0
LINE
  8
┌▓È4
  6
CONTINUOUS
 10
-24968.457
 20
9835.23675
 11
-24970.1235
 21
9836.9035
  0
LINE
  8
┌▓È4
  6
CONTINUOUS
 10
-24970.1235
 20
9836.9035
 11
-24973.457
 21
9836.9035
  0
LINE
  8
┌▓È4
  6
CONTINUOUS
 10
-24973.457
 20
9836.9035
 11
-24975.1235
 21
9836.9035
  0
LINE
  8
┌▓È4
  6
CONTINUOUS
 10
-24975.1235
 20
9836.9035
 11
-24976.79025
 21
9836.9035
  0
LINE
  8
┌▓È4
  6
CONTINUOUS
 10
-24976.79025
 20
9836.9035
 11
-24980.1235
 21
9836.9035
  0
LINE
  8
┌▓È4
  6
CONTINUOUS
 10
-24980.1235
 20
9836.9035
 11
-24981.79025
 21
9835.23675
  0
LINE
  8
┌▓È4
  6
CONTINUOUS
 10
-24981.79025
 20
9835.23675
 11
-24983.457
 21
9833.57025
  0
LINE
  8
┌▓È4
  6
CONTINUOUS
 10
-24983.457
 20
9833.57025
 11
-24985.1235
 21
9831.9035
  0
LINE
  8
┌▓È4
  6
CONTINUOUS
 10
-24985.1235
 20
9831.9035
 11
-24986.79025
 21
9830.23675
  0
LINE
  8
┌▓È4
  6
CONTINUOUS
 10
-24986.79025
 20
9830.23675
 11
-24988.457
 21
9828.57025
  0
LINE
  8
┌▓È4
  6
CONTINUOUS
 10
-24988.457
 20
9828.57025
 11
-24988.457
 21
9825.23675
  0
LINE
  8
┌▓È4
  6
CONTINUOUS
 10
-24988.457
 20
9825.23675
 11
-24988.457
 21
9823.57025
  0
LINE
  8
┌▓È4
  6
CONTINUOUS
 10
-24988.457
 20
9823.57025
 11
-24988.457
 21
9821.9035
  0
LINE
  8
┌▓È4
  6
CONTINUOUS
 10
-24988.457
 20
9821.9035
 11
-24988.457
 21
9818.57025
  0
LINE
  8
┌▓È4
  6
CONTINUOUS
 10
-24988.457
 20
9818.57025
 11
-24986.79025
 21
9816.9035
  0
LINE
  8
┌▓È4
  6
CONTINUOUS
 10
-24986.79025
 20
9816.9035
 11
-24985.1235
 21
9815.23675
  0
LINE
  8
┌▓È4
  6
CONTINUOUS
 10
-24985.1235
 20
9815.23675
 11
-24983.457
 21
9813.57025
  0
LINE
  8
┌▓È4
  6
CONTINUOUS
 10
-24983.457
 20
9813.57025
 11
-24981.79025
 21
9811.9035
  0
LINE
  8
┌▓È4
  6
CONTINUOUS
 10
-24981.79025
 20
9811.9035
 11
-24980.1235
 21
9810.23675
  0
LINE
  8
┌▓È4
  6
CONTINUOUS
 10
-24980.1235
 20
9810.23675
 11
-24976.79025
 21
9810.23675
  0
LINE
  8
┌▓È4
  6
CONTINUOUS
 10
-24976.79025
 20
9810.23675
 11
-24975.1235
 21
9810.23675
  0
LINE
  8
┌▓È4
  6
CONTINUOUS
 10
-24975.1235
 20
9810.23675
 11
-24973.457
 21
9810.23675
  0
LINE
  8
┌▓È4
  6
CONTINUOUS
 10
-24973.457
 20
9810.23675
 11
-24970.1235
 21
9810.23675
  0
LINE
  8
┌▓È4
  6
CONTINUOUS
 10
-24970.1235
 20
9810.23675
 11
-24968.457
 21
9811.9035
  0
LINE
  8
┌▓È4
  6
CONTINUOUS
 10
-24968.457
 20
9811.9035
 11
-24966.79025
 21
9813.57025
  0
LINE
  8
┌▓È4
  6
CONTINUOUS
 10
-24966.79025
 20
9813.57025
 11
-24965.1235
 21
9815.23675
  0
LINE
  8
┌▓È4
  6
CONTINUOUS
 10
-24965.1235
 20
9815.23675
 11
-24963.457
 21
9816.9035
  0
LINE
  8
┌▓È4
  6
CONTINUOUS
 10
-24963.457
 20
9816.9035
 11
-24961.79025
 21
9818.57025
  0
LINE
  8
┌▓È4
  6
CONTINUOUS
 10
-24961.79025
 20
9818.57025
 11
-24961.79025
 21
9821.9035
  0
LINE
  8
┌▓È4
  6
CONTINUOUS
 10
-24961.79025
 20
9821.9035
 11
-24961.79025
 21
9823.57025
  0
ENDBLK
  0
BLOCK
  2
*GRP_0038
 70
    65
 10
0.0
 20
0.0
  0
LINE
  8
┌▓È4
  6
CONTINUOUS
 10
-24961.79025
 20
9656.9035
 11
-24961.79025
 21
9658.57025
  0
LINE
  8
┌▓È4
  6
CONTINUOUS
 10
-24961.79025
 20
9658.57025
 11
-24961.79025
 21
9661.9035
  0
LINE
  8
┌▓È4
  6
CONTINUOUS
 10
-24961.79025
 20
9661.9035
 11
-24963.457
 21
9663.57025
  0
LINE
  8
┌▓È4
  6
CONTINUOUS
 10
-24963.457
 20
9663.57025
 11
-24965.1235
 21
9665.23675
  0
LINE
  8
┌▓È4
  6
CONTINUOUS
 10
-24965.1235
 20
9665.23675
 11
-24966.79025
 21
9666.9035
  0
LINE
  8
┌▓È4
  6
CONTINUOUS
 10
-24966.79025
 20
9666.9035
 11
-24968.457
 21
9668.57025
  0
LINE
  8
┌▓È4
  6
CONTINUOUS
 10
-24968.457
 20
9668.57025
 11
-24970.1235
 21
9670.23675
  0
LINE
  8
┌▓È4
  6
CONTINUOUS
 10
-24970.1235
 20
9670.23675
 11
-24973.457
 21
9670.23675
  0
LINE
  8
┌▓È4
  6
CONTINUOUS
 10
-24973.457
 20
9670.23675
 11
-24975.1235
 21
9670.23675
  0
LINE
  8
┌▓È4
  6
CONTINUOUS
 10
-24975.1235
 20
9670.23675
 11
-24976.79025
 21
9670.23675
  0
LINE
  8
┌▓È4
  6
CONTINUOUS
 10
-24976.79025
 20
9670.23675
 11
-24980.1235
 21
9670.23675
  0
LINE
  8
┌▓È4
  6
CONTINUOUS
 10
-24980.1235
 20
9670.23675
 11
-24981.79025
 21
9668.57025
  0
LINE
  8
┌▓È4
  6
CONTINUOUS
 10
-24981.79025
 20
9668.57025
 11
-24983.457
 21
9666.9035
  0
LINE
  8
┌▓È4
  6
CONTINUOUS
 10
-24983.457
 20
9666.9035
 11
-24985.1235
 21
9665.23675
  0
LINE
  8
┌▓È4
  6
CONTINUOUS
 10
-24985.1235
 20
9665.23675
 11
-24986.79025
 21
9663.57025
  0
LINE
  8
┌▓È4
  6
CONTINUOUS
 10
-24986.79025
 20
9663.57025
 11
-24988.457
 21
9661.9035
  0
LINE
  8
┌▓È4
  6
CONTINUOUS
 10
-24988.457
 20
9661.9035
 11
-24988.457
 21
9658.57025
  0
LINE
  8
┌▓È4
  6
CONTINUOUS
 10
-24988.457
 20
9658.57025
 11
-24988.457
 21
9656.9035
  0
LINE
  8
┌▓È4
  6
CONTINUOUS
 10
-24988.457
 20
9656.9035
 11
-24988.457
 21
9655.23675
  0
LINE
  8
┌▓È4
  6
CONTINUOUS
 10
-24988.457
 20
9655.23675
 11
-24988.457
 21
9651.9035
  0
LINE
  8
┌▓È4
  6
CONTINUOUS
 10
-24988.457
 20
9651.9035
 11
-24986.79025
 21
9650.23675
  0
LINE
  8
┌▓È4
  6
CONTINUOUS
 10
-24986.79025
 20
9650.23675
 11
-24985.1235
 21
9648.57025
  0
LINE
  8
┌▓È4
  6
CONTINUOUS
 10
-24985.1235
 20
9648.57025
 11
-24983.457
 21
9646.9035
  0
LINE
  8
┌▓È4
  6
CONTINUOUS
 10
-24983.457
 20
9646.9035
 11
-24981.79025
 21
9645.23675
  0
LINE
  8
┌▓È4
  6
CONTINUOUS
 10
-24981.79025
 20
9645.23675
 11
-24980.1235
 21
9643.57025
  0
LINE
  8
┌▓È4
  6
CONTINUOUS
 10
-24980.1235
 20
9643.57025
 11
-24976.79025
 21
9643.57025
  0
LINE
  8
┌▓È4
  6
CONTINUOUS
 10
-24976.79025
 20
9643.57025
 11
-24975.1235
 21
9643.57025
  0
LINE
  8
┌▓È4
  6
CONTINUOUS
 10
-24975.1235
 20
9643.57025
 11
-24973.457
 21
9643.57025
  0
LINE
  8
┌▓È4
  6
CONTINUOUS
 10
-24973.457
 20
9643.57025
 11
-24970.1235
 21
9643.57025
  0
LINE
  8
┌▓È4
  6
CONTINUOUS
 10
-24970.1235
 20
9643.57025
 11
-24968.457
 21
9645.23675
  0
LINE
  8
┌▓È4
  6
CONTINUOUS
 10
-24968.457
 20
9645.23675
 11
-24966.79025
 21
9646.9035
  0
LINE
  8
┌▓È4
  6
CONTINUOUS
 10
-24966.79025
 20
9646.9035
 11
-24965.1235
 21
9648.57025
  0
LINE
  8
┌▓È4
  6
CONTINUOUS
 10
-24965.1235
 20
9648.57025
 11
-24963.457
 21
9650.23675
  0
LINE
  8
┌▓È4
  6
CONTINUOUS
 10
-24963.457
 20
9650.23675
 11
-24961.79025
 21
9651.9035
  0
LINE
  8
┌▓È4
  6
CONTINUOUS
 10
-24961.79025
 20
9651.9035
 11
-24961.79025
 21
9655.23675
  0
LINE
  8
┌▓È4
  6
CONTINUOUS
 10
-24961.79025
 20
9655.23675
 11
-24961.79025
 21
9656.9035
  0
ENDBLK
  0
BLOCK
  2
*GRP_0039
 70
    65
 10
0.0
 20
0.0
  0
LINE
  8
┌▓È4
  6
CONTINUOUS
 10
-24961.79025
 20
9990.23675
 11
-24961.79025
 21
9991.9035
  0
LINE
  8
┌▓È4
  6
CONTINUOUS
 10
-24961.79025
 20
9991.9035
 11
-24961.79025
 21
9995.23675
  0
LINE
  8
┌▓È4
  6
CONTINUOUS
 10
-24961.79025
 20
9995.23675
 11
-24963.457
 21
9996.9035
  0
LINE
  8
┌▓È4
  6
CONTINUOUS
 10
-24963.457
 20
9996.9035
 11
-24965.1235
 21
9998.57025
  0
LINE
  8
┌▓È4
  6
CONTINUOUS
 10
-24965.1235
 20
9998.57025
 11
-24966.79025
 21
10000.23675
  0
LINE
  8
┌▓È4
  6
CONTINUOUS
 10
-24966.79025
 20
10000.23675
 11
-24968.457
 21
10001.9035
  0
LINE
  8
┌▓È4
  6
CONTINUOUS
 10
-24968.457
 20
10001.9035
 11
-24970.1235
 21
10003.57025
  0
LINE
  8
┌▓È4
  6
CONTINUOUS
 10
-24970.1235
 20
10003.57025
 11
-24973.457
 21
10003.57025
  0
LINE
  8
┌▓È4
  6
CONTINUOUS
 10
-24973.457
 20
10003.57025
 11
-24975.1235
 21
10003.57025
  0
LINE
  8
┌▓È4
  6
CONTINUOUS
 10
-24975.1235
 20
10003.57025
 11
-24976.79025
 21
10003.57025
  0
LINE
  8
┌▓È4
  6
CONTINUOUS
 10
-24976.79025
 20
10003.57025
 11
-24980.1235
 21
10003.57025
  0
LINE
  8
┌▓È4
  6
CONTINUOUS
 10
-24980.1235
 20
10003.57025
 11
-24981.79025
 21
10001.9035
  0
LINE
  8
┌▓È4
  6
CONTINUOUS
 10
-24981.79025
 20
10001.9035
 11
-24983.457
 21
10000.23675
  0
LINE
  8
┌▓È4
  6
CONTINUOUS
 10
-24983.457
 20
10000.23675
 11
-24985.1235
 21
9998.57025
  0
LINE
  8
┌▓È4
  6
CONTINUOUS
 10
-24985.1235
 20
9998.57025
 11
-24986.79025
 21
9996.9035
  0
LINE
  8
┌▓È4
  6
CONTINUOUS
 10
-24986.79025
 20
9996.9035
 11
-24988.457
 21
9995.23675
  0
LINE
  8
┌▓È4
  6
CONTINUOUS
 10
-24988.457
 20
9995.23675
 11
-24988.457
 21
9991.9035
  0
LINE
  8
┌▓È4
  6
CONTINUOUS
 10
-24988.457
 20
9991.9035
 11
-24988.457
 21
9990.23675
  0
LINE
  8
┌▓È4
  6
CONTINUOUS
 10
-24988.457
 20
9990.23675
 11
-24988.457
 21
9988.57025
  0
LINE
  8
┌▓È4
  6
CONTINUOUS
 10
-24988.457
 20
9988.57025
 11
-24988.457
 21
9985.23675
  0
LINE
  8
┌▓È4
  6
CONTINUOUS
 10
-24988.457
 20
9985.23675
 11
-24986.79025
 21
9983.57025
  0
LINE
  8
┌▓È4
  6
CONTINUOUS
 10
-24986.79025
 20
9983.57025
 11
-24985.1235
 21
9981.9035
  0
LINE
  8
┌▓È4
  6
CONTINUOUS
 10
-24985.1235
 20
9981.9035
 11
-24983.457
 21
9980.23675
  0
LINE
  8
┌▓È4
  6
CONTINUOUS
 10
-24983.457
 20
9980.23675
 11
-24981.79025
 21
9978.57025
  0
LINE
  8
┌▓È4
  6
CONTINUOUS
 10
-24981.79025
 20
9978.57025
 11
-24980.1235
 21
9976.9035
  0
LINE
  8
┌▓È4
  6
CONTINUOUS
 10
-24980.1235
 20
9976.9035
 11
-24976.79025
 21
9976.9035
  0
LINE
  8
┌▓È4
  6
CONTINUOUS
 10
-24976.79025
 20
9976.9035
 11
-24975.1235
 21
9976.9035
  0
LINE
  8
┌▓È4
  6
CONTINUOUS
 10
-24975.1235
 20
9976.9035
 11
-24973.457
 21
9976.9035
  0
LINE
  8
┌▓È4
  6
CONTINUOUS
 10
-24973.457
 20
9976.9035
 11
-24970.1235
 21
9976.9035
  0
LINE
  8
┌▓È4
  6
CONTINUOUS
 10
-24970.1235
 20
9976.9035
 11
-24968.457
 21
9978.57025
  0
LINE
  8
┌▓È4
  6
CONTINUOUS
 10
-24968.457
 20
9978.57025
 11
-24966.79025
 21
9980.23675
  0
LINE
  8
┌▓È4
  6
CONTINUOUS
 10
-24966.79025
 20
9980.23675
 11
-24965.1235
 21
9981.9035
  0
LINE
  8
┌▓È4
  6
CONTINUOUS
 10
-24965.1235
 20
9981.9035
 11
-24963.457
 21
9983.57025
  0
LINE
  8
┌▓È4
  6
CONTINUOUS
 10
-24963.457
 20
9983.57025
 11
-24961.79025
 21
9985.23675
  0
LINE
  8
┌▓È4
  6
CONTINUOUS
 10
-24961.79025
 20
9985.23675
 11
-24961.79025
 21
9988.57025
  0
LINE
  8
┌▓È4
  6
CONTINUOUS
 10
-24961.79025
 20
9988.57025
 11
-24961.79025
 21
9990.23675
  0
ENDBLK
  0
BLOCK
  2
*GRP_0040
 70
    65
 10
0.0
 20
0.0
  0
LINE
  8
┌▓È4
  6
CONTINUOUS
 10
-24961.79025
 20
10790.23675
 11
-24961.79025
 21
10791.90325
  0
LINE
  8
┌▓È4
  6
CONTINUOUS
 10
-24961.79025
 20
10791.90325
 11
-24961.79025
 21
10795.23675
  0
LINE
  8
┌▓È4
  6
CONTINUOUS
 10
-24961.79025
 20
10795.23675
 11
-24963.457
 21
10796.90325
  0
LINE
  8
┌▓È4
  6
CONTINUOUS
 10
-24963.457
 20
10796.90325
 11
-24965.1235
 21
10798.57
  0
LINE
  8
┌▓È4
  6
CONTINUOUS
 10
-24965.1235
 20
10798.57
 11
-24966.79025
 21
10800.23675
  0
LINE
  8
┌▓È4
  6
CONTINUOUS
 10
-24966.79025
 20
10800.23675
 11
-24968.457
 21
10801.90325
  0
LINE
  8
┌▓È4
  6
CONTINUOUS
 10
-24968.457
 20
10801.90325
 11
-24970.1235
 21
10803.57
  0
LINE
  8
┌▓È4
  6
CONTINUOUS
 10
-24970.1235
 20
10803.57
 11
-24973.457
 21
10803.57
  0
LINE
  8
┌▓È4
  6
CONTINUOUS
 10
-24973.457
 20
10803.57
 11
-24975.1235
 21
10803.57
  0
LINE
  8
┌▓È4
  6
CONTINUOUS
 10
-24975.1235
 20
10803.57
 11
-24976.79025
 21
10803.57
  0
LINE
  8
┌▓È4
  6
CONTINUOUS
 10
-24976.79025
 20
10803.57
 11
-24980.1235
 21
10803.57
  0
LINE
  8
┌▓È4
  6
CONTINUOUS
 10
-24980.1235
 20
10803.57
 11
-24981.79025
 21
10801.90325
  0
LINE
  8
┌▓È4
  6
CONTINUOUS
 10
-24981.79025
 20
10801.90325
 11
-24983.457
 21
10800.23675
  0
LINE
  8
┌▓È4
  6
CONTINUOUS
 10
-24983.457
 20
10800.23675
 11
-24985.1235
 21
10798.57
  0
LINE
  8
┌▓È4
  6
CONTINUOUS
 10
-24985.1235
 20
10798.57
 11
-24986.79025
 21
10796.90325
  0
LINE
  8
┌▓È4
  6
CONTINUOUS
 10
-24986.79025
 20
10796.90325
 11
-24988.457
 21
10795.23675
  0
LINE
  8
┌▓È4
  6
CONTINUOUS
 10
-24988.457
 20
10795.23675
 11
-24988.457
 21
10791.90325
  0
LINE
  8
┌▓È4
  6
CONTINUOUS
 10
-24988.457
 20
10791.90325
 11
-24988.457
 21
10790.23675
  0
LINE
  8
┌▓È4
  6
CONTINUOUS
 10
-24988.457
 20
10790.23675
 11
-24988.457
 21
10788.57
  0
LINE
  8
┌▓È4
  6
CONTINUOUS
 10
-24988.457
 20
10788.57
 11
-24988.457
 21
10785.23675
  0
LINE
  8
┌▓È4
  6
CONTINUOUS
 10
-24988.457
 20
10785.23675
 11
-24986.79025
 21
10783.57
  0
LINE
  8
┌▓È4
  6
CONTINUOUS
 10
-24986.79025
 20
10783.57
 11
-24985.1235
 21
10781.90325
  0
LINE
  8
┌▓È4
  6
CONTINUOUS
 10
-24985.1235
 20
10781.90325
 11
-24983.457
 21
10780.23675
  0
LINE
  8
┌▓È4
  6
CONTINUOUS
 10
-24983.457
 20
10780.23675
 11
-24981.79025
 21
10778.57
  0
LINE
  8
┌▓È4
  6
CONTINUOUS
 10
-24981.79025
 20
10778.57
 11
-24980.1235
 21
10776.90325
  0
LINE
  8
┌▓È4
  6
CONTINUOUS
 10
-24980.1235
 20
10776.90325
 11
-24976.79025
 21
10776.90325
  0
LINE
  8
┌▓È4
  6
CONTINUOUS
 10
-24976.79025
 20
10776.90325
 11
-24975.1235
 21
10776.90325
  0
LINE
  8
┌▓È4
  6
CONTINUOUS
 10
-24975.1235
 20
10776.90325
 11
-24973.457
 21
10776.90325
  0
LINE
  8
┌▓È4
  6
CONTINUOUS
 10
-24973.457
 20
10776.90325
 11
-24970.1235
 21
10776.90325
  0
LINE
  8
┌▓È4
  6
CONTINUOUS
 10
-24970.1235
 20
10776.90325
 11
-24968.457
 21
10778.57
  0
LINE
  8
┌▓È4
  6
CONTINUOUS
 10
-24968.457
 20
10778.57
 11
-24966.79025
 21
10780.23675
  0
LINE
  8
┌▓È4
  6
CONTINUOUS
 10
-24966.79025
 20
10780.23675
 11
-24965.1235
 21
10781.90325
  0
LINE
  8
┌▓È4
  6
CONTINUOUS
 10
-24965.1235
 20
10781.90325
 11
-24963.457
 21
10783.57
  0
LINE
  8
┌▓È4
  6
CONTINUOUS
 10
-24963.457
 20
10783.57
 11
-24961.79025
 21
10785.23675
  0
LINE
  8
┌▓È4
  6
CONTINUOUS
 10
-24961.79025
 20
10785.23675
 11
-24961.79025
 21
10788.57
  0
LINE
  8
┌▓È4
  6
CONTINUOUS
 10
-24961.79025
 20
10788.57
 11
-24961.79025
 21
10790.23675
  0
ENDBLK
  0
BLOCK
  2
*GRP_0041
 70
    65
 10
0.0
 20
0.0
  0
LINE
  8
┌▓È4
  6
CONTINUOUS
 10
-24961.79025
 20
10623.57
 11
-24961.79025
 21
10625.23675
  0
LINE
  8
┌▓È4
  6
CONTINUOUS
 10
-24961.79025
 20
10625.23675
 11
-24961.79025
 21
10628.57
  0
LINE
  8
┌▓È4
  6
CONTINUOUS
 10
-24961.79025
 20
10628.57
 11
-24963.457
 21
10630.23675
  0
LINE
  8
┌▓È4
  6
CONTINUOUS
 10
-24963.457
 20
10630.23675
 11
-24965.1235
 21
10631.90325
  0
LINE
  8
┌▓È4
  6
CONTINUOUS
 10
-24965.1235
 20
10631.90325
 11
-24966.79025
 21
10633.57
  0
LINE
  8
┌▓È4
  6
CONTINUOUS
 10
-24966.79025
 20
10633.57
 11
-24968.457
 21
10635.23675
  0
LINE
  8
┌▓È4
  6
CONTINUOUS
 10
-24968.457
 20
10635.23675
 11
-24970.1235
 21
10636.90325
  0
LINE
  8
┌▓È4
  6
CONTINUOUS
 10
-24970.1235
 20
10636.90325
 11
-24973.457
 21
10636.90325
  0
LINE
  8
┌▓È4
  6
CONTINUOUS
 10
-24973.457
 20
10636.90325
 11
-24975.1235
 21
10636.90325
  0
LINE
  8
┌▓È4
  6
CONTINUOUS
 10
-24975.1235
 20
10636.90325
 11
-24976.79025
 21
10636.90325
  0
LINE
  8
┌▓È4
  6
CONTINUOUS
 10
-24976.79025
 20
10636.90325
 11
-24980.1235
 21
10636.90325
  0
LINE
  8
┌▓È4
  6
CONTINUOUS
 10
-24980.1235
 20
10636.90325
 11
-24981.79025
 21
10635.23675
  0
LINE
  8
┌▓È4
  6
CONTINUOUS
 10
-24981.79025
 20
10635.23675
 11
-24983.457
 21
10633.57
  0
LINE
  8
┌▓È4
  6
CONTINUOUS
 10
-24983.457
 20
10633.57
 11
-24985.1235
 21
10631.90325
  0
LINE
  8
┌▓È4
  6
CONTINUOUS
 10
-24985.1235
 20
10631.90325
 11
-24986.79025
 21
10630.23675
  0
LINE
  8
┌▓È4
  6
CONTINUOUS
 10
-24986.79025
 20
10630.23675
 11
-24988.457
 21
10628.57
  0
LINE
  8
┌▓È4
  6
CONTINUOUS
 10
-24988.457
 20
10628.57
 11
-24988.457
 21
10625.23675
  0
LINE
  8
┌▓È4
  6
CONTINUOUS
 10
-24988.457
 20
10625.23675
 11
-24988.457
 21
10623.57
  0
LINE
  8
┌▓È4
  6
CONTINUOUS
 10
-24988.457
 20
10623.57
 11
-24988.457
 21
10621.90325
  0
LINE
  8
┌▓È4
  6
CONTINUOUS
 10
-24988.457
 20
10621.90325
 11
-24988.457
 21
10618.57
  0
LINE
  8
┌▓È4
  6
CONTINUOUS
 10
-24988.457
 20
10618.57
 11
-24986.79025
 21
10616.90325
  0
LINE
  8
┌▓È4
  6
CONTINUOUS
 10
-24986.79025
 20
10616.90325
 11
-24985.1235
 21
10615.23675
  0
LINE
  8
┌▓È4
  6
CONTINUOUS
 10
-24985.1235
 20
10615.23675
 11
-24983.457
 21
10613.57
  0
LINE
  8
┌▓È4
  6
CONTINUOUS
 10
-24983.457
 20
10613.57
 11
-24981.79025
 21
10611.90325
  0
LINE
  8
┌▓È4
  6
CONTINUOUS
 10
-24981.79025
 20
10611.90325
 11
-24980.1235
 21
10610.23675
  0
LINE
  8
┌▓È4
  6
CONTINUOUS
 10
-24980.1235
 20
10610.23675
 11
-24976.79025
 21
10610.23675
  0
LINE
  8
┌▓È4
  6
CONTINUOUS
 10
-24976.79025
 20
10610.23675
 11
-24975.1235
 21
10610.23675
  0
LINE
  8
┌▓È4
  6
CONTINUOUS
 10
-24975.1235
 20
10610.23675
 11
-24973.457
 21
10610.23675
  0
LINE
  8
┌▓È4
  6
CONTINUOUS
 10
-24973.457
 20
10610.23675
 11
-24970.1235
 21
10610.23675
  0
LINE
  8
┌▓È4
  6
CONTINUOUS
 10
-24970.1235
 20
10610.23675
 11
-24968.457
 21
10611.90325
  0
LINE
  8
┌▓È4
  6
CONTINUOUS
 10
-24968.457
 20
10611.90325
 11
-24966.79025
 21
10613.57
  0
LINE
  8
┌▓È4
  6
CONTINUOUS
 10
-24966.79025
 20
10613.57
 11
-24965.1235
 21
10615.23675
  0
LINE
  8
┌▓È4
  6
CONTINUOUS
 10
-24965.1235
 20
10615.23675
 11
-24963.457
 21
10616.90325
  0
LINE
  8
┌▓È4
  6
CONTINUOUS
 10
-24963.457
 20
10616.90325
 11
-24961.79025
 21
10618.57
  0
LINE
  8
┌▓È4
  6
CONTINUOUS
 10
-24961.79025
 20
10618.57
 11
-24961.79025
 21
10621.90325
  0
LINE
  8
┌▓È4
  6
CONTINUOUS
 10
-24961.79025
 20
10621.90325
 11
-24961.79025
 21
10623.57
  0
ENDBLK
  0
BLOCK
  2
*GRP_0042
 70
    65
 10
0.0
 20
0.0
  0
LINE
  8
┌▓È4
  6
CONTINUOUS
 10
-24961.79025
 20
10956.90325
 11
-24961.79025
 21
10958.57
  0
LINE
  8
┌▓È4
  6
CONTINUOUS
 10
-24961.79025
 20
10958.57
 11
-24961.79025
 21
10961.90325
  0
LINE
  8
┌▓È4
  6
CONTINUOUS
 10
-24961.79025
 20
10961.90325
 11
-24963.457
 21
10963.57
  0
LINE
  8
┌▓È4
  6
CONTINUOUS
 10
-24963.457
 20
10963.57
 11
-24965.1235
 21
10965.23675
  0
LINE
  8
┌▓È4
  6
CONTINUOUS
 10
-24965.1235
 20
10965.23675
 11
-24966.79025
 21
10966.90325
  0
LINE
  8
┌▓È4
  6
CONTINUOUS
 10
-24966.79025
 20
10966.90325
 11
-24968.457
 21
10968.57
  0
LINE
  8
┌▓È4
  6
CONTINUOUS
 10
-24968.457
 20
10968.57
 11
-24970.1235
 21
10970.23675
  0
LINE
  8
┌▓È4
  6
CONTINUOUS
 10
-24970.1235
 20
10970.23675
 11
-24973.457
 21
10970.23675
  0
LINE
  8
┌▓È4
  6
CONTINUOUS
 10
-24973.457
 20
10970.23675
 11
-24975.1235
 21
10970.23675
  0
LINE
  8
┌▓È4
  6
CONTINUOUS
 10
-24975.1235
 20
10970.23675
 11
-24976.79025
 21
10970.23675
  0
LINE
  8
┌▓È4
  6
CONTINUOUS
 10
-24976.79025
 20
10970.23675
 11
-24980.1235
 21
10970.23675
  0
LINE
  8
┌▓È4
  6
CONTINUOUS
 10
-24980.1235
 20
10970.23675
 11
-24981.79025
 21
10968.57
  0
LINE
  8
┌▓È4
  6
CONTINUOUS
 10
-24981.79025
 20
10968.57
 11
-24983.457
 21
10966.90325
  0
LINE
  8
┌▓È4
  6
CONTINUOUS
 10
-24983.457
 20
10966.90325
 11
-24985.1235
 21
10965.23675
  0
LINE
  8
┌▓È4
  6
CONTINUOUS
 10
-24985.1235
 20
10965.23675
 11
-24986.79025
 21
10963.57
  0
LINE
  8
┌▓È4
  6
CONTINUOUS
 10
-24986.79025
 20
10963.57
 11
-24988.457
 21
10961.90325
  0
LINE
  8
┌▓È4
  6
CONTINUOUS
 10
-24988.457
 20
10961.90325
 11
-24988.457
 21
10958.57
  0
LINE
  8
┌▓È4
  6
CONTINUOUS
 10
-24988.457
 20
10958.57
 11
-24988.457
 21
10956.90325
  0
LINE
  8
┌▓È4
  6
CONTINUOUS
 10
-24988.457
 20
10956.90325
 11
-24988.457
 21
10955.23675
  0
LINE
  8
┌▓È4
  6
CONTINUOUS
 10
-24988.457
 20
10955.23675
 11
-24988.457
 21
10951.90325
  0
LINE
  8
┌▓È4
  6
CONTINUOUS
 10
-24988.457
 20
10951.90325
 11
-24986.79025
 21
10950.23675
  0
LINE
  8
┌▓È4
  6
CONTINUOUS
 10
-24986.79025
 20
10950.23675
 11
-24985.1235
 21
10948.57
  0
LINE
  8
┌▓È4
  6
CONTINUOUS
 10
-24985.1235
 20
10948.57
 11
-24983.457
 21
10946.90325
  0
LINE
  8
┌▓È4
  6
CONTINUOUS
 10
-24983.457
 20
10946.90325
 11
-24981.79025
 21
10945.23675
  0
LINE
  8
┌▓È4
  6
CONTINUOUS
 10
-24981.79025
 20
10945.23675
 11
-24980.1235
 21
10943.57
  0
LINE
  8
┌▓È4
  6
CONTINUOUS
 10
-24980.1235
 20
10943.57
 11
-24976.79025
 21
10943.57
  0
LINE
  8
┌▓È4
  6
CONTINUOUS
 10
-24976.79025
 20
10943.57
 11
-24975.1235
 21
10943.57
  0
LINE
  8
┌▓È4
  6
CONTINUOUS
 10
-24975.1235
 20
10943.57
 11
-24973.457
 21
10943.57
  0
LINE
  8
┌▓È4
  6
CONTINUOUS
 10
-24973.457
 20
10943.57
 11
-24970.1235
 21
10943.57
  0
LINE
  8
┌▓È4
  6
CONTINUOUS
 10
-24970.1235
 20
10943.57
 11
-24968.457
 21
10945.23675
  0
LINE
  8
┌▓È4
  6
CONTINUOUS
 10
-24968.457
 20
10945.23675
 11
-24966.79025
 21
10946.90325
  0
LINE
  8
┌▓È4
  6
CONTINUOUS
 10
-24966.79025
 20
10946.90325
 11
-24965.1235
 21
10948.57
  0
LINE
  8
┌▓È4
  6
CONTINUOUS
 10
-24965.1235
 20
10948.57
 11
-24963.457
 21
10950.23675
  0
LINE
  8
┌▓È4
  6
CONTINUOUS
 10
-24963.457
 20
10950.23675
 11
-24961.79025
 21
10951.90325
  0
LINE
  8
┌▓È4
  6
CONTINUOUS
 10
-24961.79025
 20
10951.90325
 11
-24961.79025
 21
10955.23675
  0
LINE
  8
┌▓È4
  6
CONTINUOUS
 10
-24961.79025
 20
10955.23675
 11
-24961.79025
 21
10956.90325
  0
ENDBLK
  0
BLOCK
  2
*GRP_0043
 70
    65
 10
0.0
 20
0.0
  0
LINE
  8
┌▓È4
  6
CONTINUOUS
 10
-24541.79025
 20
7340.237
 11
-24541.79025
 21
7341.9035
  0
LINE
  8
┌▓È4
  6
CONTINUOUS
 10
-24541.79025
 20
7341.9035
 11
-24541.79025
 21
7345.237
  0
LINE
  8
┌▓È4
  6
CONTINUOUS
 10
-24541.79025
 20
7345.237
 11
-24540.1235
 21
7346.9035
  0
LINE
  8
┌▓È4
  6
CONTINUOUS
 10
-24540.1235
 20
7346.9035
 11
-24538.457
 21
7348.57025
  0
LINE
  8
┌▓È4
  6
CONTINUOUS
 10
-24538.457
 20
7348.57025
 11
-24536.79025
 21
7350.237
  0
LINE
  8
┌▓È4
  6
CONTINUOUS
 10
-24536.79025
 20
7350.237
 11
-24535.1235
 21
7351.9035
  0
LINE
  8
┌▓È4
  6
CONTINUOUS
 10
-24535.1235
 20
7351.9035
 11
-24533.457
 21
7353.57025
  0
LINE
  8
┌▓È4
  6
CONTINUOUS
 10
-24533.457
 20
7353.57025
 11
-24530.1235
 21
7353.57025
  0
LINE
  8
┌▓È4
  6
CONTINUOUS
 10
-24530.1235
 20
7353.57025
 11
-24528.457
 21
7353.57025
  0
LINE
  8
┌▓È4
  6
CONTINUOUS
 10
-24528.457
 20
7353.57025
 11
-24526.79025
 21
7353.57025
  0
LINE
  8
┌▓È4
  6
CONTINUOUS
 10
-24526.79025
 20
7353.57025
 11
-24523.457
 21
7353.57025
  0
LINE
  8
┌▓È4
  6
CONTINUOUS
 10
-24523.457
 20
7353.57025
 11
-24521.79025
 21
7351.9035
  0
LINE
  8
┌▓È4
  6
CONTINUOUS
 10
-24521.79025
 20
7351.9035
 11
-24520.1235
 21
7350.237
  0
LINE
  8
┌▓È4
  6
CONTINUOUS
 10
-24520.1235
 20
7350.237
 11
-24518.457
 21
7348.57025
  0
LINE
  8
┌▓È4
  6
CONTINUOUS
 10
-24518.457
 20
7348.57025
 11
-24516.79025
 21
7346.9035
  0
LINE
  8
┌▓È4
  6
CONTINUOUS
 10
-24516.79025
 20
7346.9035
 11
-24515.1235
 21
7345.237
  0
LINE
  8
┌▓È4
  6
CONTINUOUS
 10
-24515.1235
 20
7345.237
 11
-24515.1235
 21
7341.9035
  0
LINE
  8
┌▓È4
  6
CONTINUOUS
 10
-24515.1235
 20
7341.9035
 11
-24515.1235
 21
7340.237
  0
LINE
  8
┌▓È4
  6
CONTINUOUS
 10
-24515.1235
 20
7340.237
 11
-24515.1235
 21
7338.57025
  0
LINE
  8
┌▓È4
  6
CONTINUOUS
 10
-24515.1235
 20
7338.57025
 11
-24515.1235
 21
7335.237
  0
LINE
  8
┌▓È4
  6
CONTINUOUS
 10
-24515.1235
 20
7335.237
 11
-24516.79025
 21
7333.57025
  0
LINE
  8
┌▓È4
  6
CONTINUOUS
 10
-24516.79025
 20
7333.57025
 11
-24518.457
 21
7331.9035
  0
LINE
  8
┌▓È4
  6
CONTINUOUS
 10
-24518.457
 20
7331.9035
 11
-24520.1235
 21
7330.237
  0
LINE
  8
┌▓È4
  6
CONTINUOUS
 10
-24520.1235
 20
7330.237
 11
-24521.79025
 21
7328.57025
  0
LINE
  8
┌▓È4
  6
CONTINUOUS
 10
-24521.79025
 20
7328.57025
 11
-24523.457
 21
7326.9035
  0
LINE
  8
┌▓È4
  6
CONTINUOUS
 10
-24523.457
 20
7326.9035
 11
-24526.79025
 21
7326.9035
  0
LINE
  8
┌▓È4
  6
CONTINUOUS
 10
-24526.79025
 20
7326.9035
 11
-24528.457
 21
7326.9035
  0
LINE
  8
┌▓È4
  6
CONTINUOUS
 10
-24528.457
 20
7326.9035
 11
-24530.1235
 21
7326.9035
  0
LINE
  8
┌▓È4
  6
CONTINUOUS
 10
-24530.1235
 20
7326.9035
 11
-24533.457
 21
7326.9035
  0
LINE
  8
┌▓È4
  6
CONTINUOUS
 10
-24533.457
 20
7326.9035
 11
-24535.1235
 21
7328.57025
  0
LINE
  8
┌▓È4
  6
CONTINUOUS
 10
-24535.1235
 20
7328.57025
 11
-24536.79025
 21
7330.237
  0
LINE
  8
┌▓È4
  6
CONTINUOUS
 10
-24536.79025
 20
7330.237
 11
-24538.457
 21
7331.9035
  0
LINE
  8
┌▓È4
  6
CONTINUOUS
 10
-24538.457
 20
7331.9035
 11
-24540.1235
 21
7333.57025
  0
LINE
  8
┌▓È4
  6
CONTINUOUS
 10
-24540.1235
 20
7333.57025
 11
-24541.79025
 21
7335.237
  0
LINE
  8
┌▓È4
  6
CONTINUOUS
 10
-24541.79025
 20
7335.237
 11
-24541.79025
 21
7338.57025
  0
LINE
  8
┌▓È4
  6
CONTINUOUS
 10
-24541.79025
 20
7338.57025
 11
-24541.79025
 21
7340.237
  0
ENDBLK
  0
BLOCK
  2
*GRP_0044
 70
    65
 10
0.0
 20
0.0
  0
LINE
  8
┌▓È4
  6
CONTINUOUS
 10
-24541.79025
 20
7173.57025
 11
-24541.79025
 21
7175.237
  0
LINE
  8
┌▓È4
  6
CONTINUOUS
 10
-24541.79025
 20
7175.237
 11
-24541.79025
 21
7178.57025
  0
LINE
  8
┌▓È4
  6
CONTINUOUS
 10
-24541.79025
 20
7178.57025
 11
-24540.1235
 21
7180.237
  0
LINE
  8
┌▓È4
  6
CONTINUOUS
 10
-24540.1235
 20
7180.237
 11
-24538.457
 21
7181.9035
  0
LINE
  8
┌▓È4
  6
CONTINUOUS
 10
-24538.457
 20
7181.9035
 11
-24536.79025
 21
7183.57025
  0
LINE
  8
┌▓È4
  6
CONTINUOUS
 10
-24536.79025
 20
7183.57025
 11
-24535.1235
 21
7185.237
  0
LINE
  8
┌▓È4
  6
CONTINUOUS
 10
-24535.1235
 20
7185.237
 11
-24533.457
 21
7186.9035
  0
LINE
  8
┌▓È4
  6
CONTINUOUS
 10
-24533.457
 20
7186.9035
 11
-24530.1235
 21
7186.9035
  0
LINE
  8
┌▓È4
  6
CONTINUOUS
 10
-24530.1235
 20
7186.9035
 11
-24528.457
 21
7186.9035
  0
LINE
  8
┌▓È4
  6
CONTINUOUS
 10
-24528.457
 20
7186.9035
 11
-24526.79025
 21
7186.9035
  0
LINE
  8
┌▓È4
  6
CONTINUOUS
 10
-24526.79025
 20
7186.9035
 11
-24523.457
 21
7186.9035
  0
LINE
  8
┌▓È4
  6
CONTINUOUS
 10
-24523.457
 20
7186.9035
 11
-24521.79025
 21
7185.237
  0
LINE
  8
┌▓È4
  6
CONTINUOUS
 10
-24521.79025
 20
7185.237
 11
-24520.1235
 21
7183.57025
  0
LINE
  8
┌▓È4
  6
CONTINUOUS
 10
-24520.1235
 20
7183.57025
 11
-24518.457
 21
7181.9035
  0
LINE
  8
┌▓È4
  6
CONTINUOUS
 10
-24518.457
 20
7181.9035
 11
-24516.79025
 21
7180.237
  0
LINE
  8
┌▓È4
  6
CONTINUOUS
 10
-24516.79025
 20
7180.237
 11
-24515.1235
 21
7178.57025
  0
LINE
  8
┌▓È4
  6
CONTINUOUS
 10
-24515.1235
 20
7178.57025
 11
-24515.1235
 21
7175.237
  0
LINE
  8
┌▓È4
  6
CONTINUOUS
 10
-24515.1235
 20
7175.237
 11
-24515.1235
 21
7173.57025
  0
LINE
  8
┌▓È4
  6
CONTINUOUS
 10
-24515.1235
 20
7173.57025
 11
-24515.1235
 21
7171.9035
  0
LINE
  8
┌▓È4
  6
CONTINUOUS
 10
-24515.1235
 20
7171.9035
 11
-24515.1235
 21
7168.57025
  0
LINE
  8
┌▓È4
  6
CONTINUOUS
 10
-24515.1235
 20
7168.57025
 11
-24516.79025
 21
7166.9035
  0
LINE
  8
┌▓È4
  6
CONTINUOUS
 10
-24516.79025
 20
7166.9035
 11
-24518.457
 21
7165.237
  0
LINE
  8
┌▓È4
  6
CONTINUOUS
 10
-24518.457
 20
7165.237
 11
-24520.1235
 21
7163.57025
  0
LINE
  8
┌▓È4
  6
CONTINUOUS
 10
-24520.1235
 20
7163.57025
 11
-24521.79025
 21
7161.9035
  0
LINE
  8
┌▓È4
  6
CONTINUOUS
 10
-24521.79025
 20
7161.9035
 11
-24523.457
 21
7160.237
  0
LINE
  8
┌▓È4
  6
CONTINUOUS
 10
-24523.457
 20
7160.237
 11
-24526.79025
 21
7160.237
  0
LINE
  8
┌▓È4
  6
CONTINUOUS
 10
-24526.79025
 20
7160.237
 11
-24528.457
 21
7160.237
  0
LINE
  8
┌▓È4
  6
CONTINUOUS
 10
-24528.457
 20
7160.237
 11
-24530.1235
 21
7160.237
  0
LINE
  8
┌▓È4
  6
CONTINUOUS
 10
-24530.1235
 20
7160.237
 11
-24533.457
 21
7160.237
  0
LINE
  8
┌▓È4
  6
CONTINUOUS
 10
-24533.457
 20
7160.237
 11
-24535.1235
 21
7161.9035
  0
LINE
  8
┌▓È4
  6
CONTINUOUS
 10
-24535.1235
 20
7161.9035
 11
-24536.79025
 21
7163.57025
  0
LINE
  8
┌▓È4
  6
CONTINUOUS
 10
-24536.79025
 20
7163.57025
 11
-24538.457
 21
7165.237
  0
LINE
  8
┌▓È4
  6
CONTINUOUS
 10
-24538.457
 20
7165.237
 11
-24540.1235
 21
7166.9035
  0
LINE
  8
┌▓È4
  6
CONTINUOUS
 10
-24540.1235
 20
7166.9035
 11
-24541.79025
 21
7168.57025
  0
LINE
  8
┌▓È4
  6
CONTINUOUS
 10
-24541.79025
 20
7168.57025
 11
-24541.79025
 21
7171.9035
  0
LINE
  8
┌▓È4
  6
CONTINUOUS
 10
-24541.79025
 20
7171.9035
 11
-24541.79025
 21
7173.57025
  0
ENDBLK
  0
BLOCK
  2
*GRP_0045
 70
    65
 10
0.0
 20
0.0
  0
LINE
  8
┌▓È4
  6
CONTINUOUS
 10
-24541.79025
 20
7506.9035
 11
-24541.79025
 21
7508.57025
  0
LINE
  8
┌▓È4
  6
CONTINUOUS
 10
-24541.79025
 20
7508.57025
 11
-24541.79025
 21
7511.9035
  0
LINE
  8
┌▓È4
  6
CONTINUOUS
 10
-24541.79025
 20
7511.9035
 11
-24540.1235
 21
7513.57025
  0
LINE
  8
┌▓È4
  6
CONTINUOUS
 10
-24540.1235
 20
7513.57025
 11
-24538.457
 21
7515.237
  0
LINE
  8
┌▓È4
  6
CONTINUOUS
 10
-24538.457
 20
7515.237
 11
-24536.79025
 21
7516.9035
  0
LINE
  8
┌▓È4
  6
CONTINUOUS
 10
-24536.79025
 20
7516.9035
 11
-24535.1235
 21
7518.57025
  0
LINE
  8
┌▓È4
  6
CONTINUOUS
 10
-24535.1235
 20
7518.57025
 11
-24533.457
 21
7520.237
  0
LINE
  8
┌▓È4
  6
CONTINUOUS
 10
-24533.457
 20
7520.237
 11
-24530.1235
 21
7520.237
  0
LINE
  8
┌▓È4
  6
CONTINUOUS
 10
-24530.1235
 20
7520.237
 11
-24528.457
 21
7520.237
  0
LINE
  8
┌▓È4
  6
CONTINUOUS
 10
-24528.457
 20
7520.237
 11
-24526.79025
 21
7520.237
  0
LINE
  8
┌▓È4
  6
CONTINUOUS
 10
-24526.79025
 20
7520.237
 11
-24523.457
 21
7520.237
  0
LINE
  8
┌▓È4
  6
CONTINUOUS
 10
-24523.457
 20
7520.237
 11
-24521.79025
 21
7518.57025
  0
LINE
  8
┌▓È4
  6
CONTINUOUS
 10
-24521.79025
 20
7518.57025
 11
-24520.1235
 21
7516.9035
  0
LINE
  8
┌▓È4
  6
CONTINUOUS
 10
-24520.1235
 20
7516.9035
 11
-24518.457
 21
7515.237
  0
LINE
  8
┌▓È4
  6
CONTINUOUS
 10
-24518.457
 20
7515.237
 11
-24516.79025
 21
7513.57025
  0
LINE
  8
┌▓È4
  6
CONTINUOUS
 10
-24516.79025
 20
7513.57025
 11
-24515.1235
 21
7511.9035
  0
LINE
  8
┌▓È4
  6
CONTINUOUS
 10
-24515.1235
 20
7511.9035
 11
-24515.1235
 21
7508.57025
  0
LINE
  8
┌▓È4
  6
CONTINUOUS
 10
-24515.1235
 20
7508.57025
 11
-24515.1235
 21
7506.9035
  0
LINE
  8
┌▓È4
  6
CONTINUOUS
 10
-24515.1235
 20
7506.9035
 11
-24515.1235
 21
7505.237
  0
LINE
  8
┌▓È4
  6
CONTINUOUS
 10
-24515.1235
 20
7505.237
 11
-24515.1235
 21
7501.9035
  0
LINE
  8
┌▓È4
  6
CONTINUOUS
 10
-24515.1235
 20
7501.9035
 11
-24516.79025
 21
7500.237
  0
LINE
  8
┌▓È4
  6
CONTINUOUS
 10
-24516.79025
 20
7500.237
 11
-24518.457
 21
7498.57025
  0
LINE
  8
┌▓È4
  6
CONTINUOUS
 10
-24518.457
 20
7498.57025
 11
-24520.1235
 21
7496.9035
  0
LINE
  8
┌▓È4
  6
CONTINUOUS
 10
-24520.1235
 20
7496.9035
 11
-24521.79025
 21
7495.237
  0
LINE
  8
┌▓È4
  6
CONTINUOUS
 10
-24521.79025
 20
7495.237
 11
-24523.457
 21
7493.57025
  0
LINE
  8
┌▓È4
  6
CONTINUOUS
 10
-24523.457
 20
7493.57025
 11
-24526.79025
 21
7493.57025
  0
LINE
  8
┌▓È4
  6
CONTINUOUS
 10
-24526.79025
 20
7493.57025
 11
-24528.457
 21
7493.57025
  0
LINE
  8
┌▓È4
  6
CONTINUOUS
 10
-24528.457
 20
7493.57025
 11
-24530.1235
 21
7493.57025
  0
LINE
  8
┌▓È4
  6
CONTINUOUS
 10
-24530.1235
 20
7493.57025
 11
-24533.457
 21
7493.57025
  0
LINE
  8
┌▓È4
  6
CONTINUOUS
 10
-24533.457
 20
7493.57025
 11
-24535.1235
 21
7495.237
  0
LINE
  8
┌▓È4
  6
CONTINUOUS
 10
-24535.1235
 20
7495.237
 11
-24536.79025
 21
7496.9035
  0
LINE
  8
┌▓È4
  6
CONTINUOUS
 10
-24536.79025
 20
7496.9035
 11
-24538.457
 21
7498.57025
  0
LINE
  8
┌▓È4
  6
CONTINUOUS
 10
-24538.457
 20
7498.57025
 11
-24540.1235
 21
7500.237
  0
LINE
  8
┌▓È4
  6
CONTINUOUS
 10
-24540.1235
 20
7500.237
 11
-24541.79025
 21
7501.9035
  0
LINE
  8
┌▓È4
  6
CONTINUOUS
 10
-24541.79025
 20
7501.9035
 11
-24541.79025
 21
7505.237
  0
LINE
  8
┌▓È4
  6
CONTINUOUS
 10
-24541.79025
 20
7505.237
 11
-24541.79025
 21
7506.9035
  0
ENDBLK
  0
BLOCK
  2
*GRP_0046
 70
    65
 10
0.0
 20
0.0
  0
LINE
  8
┌▓È4
  6
CONTINUOUS
 10
-24961.79025
 20
7340.237
 11
-24961.79025
 21
7341.9035
  0
LINE
  8
┌▓È4
  6
CONTINUOUS
 10
-24961.79025
 20
7341.9035
 11
-24961.79025
 21
7345.237
  0
LINE
  8
┌▓È4
  6
CONTINUOUS
 10
-24961.79025
 20
7345.237
 11
-24963.457
 21
7346.9035
  0
LINE
  8
┌▓È4
  6
CONTINUOUS
 10
-24963.457
 20
7346.9035
 11
-24965.1235
 21
7348.57025
  0
LINE
  8
┌▓È4
  6
CONTINUOUS
 10
-24965.1235
 20
7348.57025
 11
-24966.79025
 21
7350.237
  0
LINE
  8
┌▓È4
  6
CONTINUOUS
 10
-24966.79025
 20
7350.237
 11
-24968.457
 21
7351.9035
  0
LINE
  8
┌▓È4
  6
CONTINUOUS
 10
-24968.457
 20
7351.9035
 11
-24970.1235
 21
7353.57025
  0
LINE
  8
┌▓È4
  6
CONTINUOUS
 10
-24970.1235
 20
7353.57025
 11
-24973.457
 21
7353.57025
  0
LINE
  8
┌▓È4
  6
CONTINUOUS
 10
-24973.457
 20
7353.57025
 11
-24975.1235
 21
7353.57025
  0
LINE
  8
┌▓È4
  6
CONTINUOUS
 10
-24975.1235
 20
7353.57025
 11
-24976.79025
 21
7353.57025
  0
LINE
  8
┌▓È4
  6
CONTINUOUS
 10
-24976.79025
 20
7353.57025
 11
-24980.1235
 21
7353.57025
  0
LINE
  8
┌▓È4
  6
CONTINUOUS
 10
-24980.1235
 20
7353.57025
 11
-24981.79025
 21
7351.9035
  0
LINE
  8
┌▓È4
  6
CONTINUOUS
 10
-24981.79025
 20
7351.9035
 11
-24983.457
 21
7350.237
  0
LINE
  8
┌▓È4
  6
CONTINUOUS
 10
-24983.457
 20
7350.237
 11
-24985.1235
 21
7348.57025
  0
LINE
  8
┌▓È4
  6
CONTINUOUS
 10
-24985.1235
 20
7348.57025
 11
-24986.79025
 21
7346.9035
  0
LINE
  8
┌▓È4
  6
CONTINUOUS
 10
-24986.79025
 20
7346.9035
 11
-24988.457
 21
7345.237
  0
LINE
  8
┌▓È4
  6
CONTINUOUS
 10
-24988.457
 20
7345.237
 11
-24988.457
 21
7341.9035
  0
LINE
  8
┌▓È4
  6
CONTINUOUS
 10
-24988.457
 20
7341.9035
 11
-24988.457
 21
7340.237
  0
LINE
  8
┌▓È4
  6
CONTINUOUS
 10
-24988.457
 20
7340.237
 11
-24988.457
 21
7338.57025
  0
LINE
  8
┌▓È4
  6
CONTINUOUS
 10
-24988.457
 20
7338.57025
 11
-24988.457
 21
7335.237
  0
LINE
  8
┌▓È4
  6
CONTINUOUS
 10
-24988.457
 20
7335.237
 11
-24986.79025
 21
7333.57025
  0
LINE
  8
┌▓È4
  6
CONTINUOUS
 10
-24986.79025
 20
7333.57025
 11
-24985.1235
 21
7331.9035
  0
LINE
  8
┌▓È4
  6
CONTINUOUS
 10
-24985.1235
 20
7331.9035
 11
-24983.457
 21
7330.237
  0
LINE
  8
┌▓È4
  6
CONTINUOUS
 10
-24983.457
 20
7330.237
 11
-24981.79025
 21
7328.57025
  0
LINE
  8
┌▓È4
  6
CONTINUOUS
 10
-24981.79025
 20
7328.57025
 11
-24980.1235
 21
7326.9035
  0
LINE
  8
┌▓È4
  6
CONTINUOUS
 10
-24980.1235
 20
7326.9035
 11
-24976.79025
 21
7326.9035
  0
LINE
  8
┌▓È4
  6
CONTINUOUS
 10
-24976.79025
 20
7326.9035
 11
-24975.1235
 21
7326.9035
  0
LINE
  8
┌▓È4
  6
CONTINUOUS
 10
-24975.1235
 20
7326.9035
 11
-24973.457
 21
7326.9035
  0
LINE
  8
┌▓È4
  6
CONTINUOUS
 10
-24973.457
 20
7326.9035
 11
-24970.1235
 21
7326.9035
  0
LINE
  8
┌▓È4
  6
CONTINUOUS
 10
-24970.1235
 20
7326.9035
 11
-24968.457
 21
7328.57025
  0
LINE
  8
┌▓È4
  6
CONTINUOUS
 10
-24968.457
 20
7328.57025
 11
-24966.79025
 21
7330.237
  0
LINE
  8
┌▓È4
  6
CONTINUOUS
 10
-24966.79025
 20
7330.237
 11
-24965.1235
 21
7331.9035
  0
LINE
  8
┌▓È4
  6
CONTINUOUS
 10
-24965.1235
 20
7331.9035
 11
-24963.457
 21
7333.57025
  0
LINE
  8
┌▓È4
  6
CONTINUOUS
 10
-24963.457
 20
7333.57025
 11
-24961.79025
 21
7335.237
  0
LINE
  8
┌▓È4
  6
CONTINUOUS
 10
-24961.79025
 20
7335.237
 11
-24961.79025
 21
7338.57025
  0
LINE
  8
┌▓È4
  6
CONTINUOUS
 10
-24961.79025
 20
7338.57025
 11
-24961.79025
 21
7340.237
  0
ENDBLK
  0
BLOCK
  2
*GRP_0047
 70
    65
 10
0.0
 20
0.0
  0
LINE
  8
┌▓È4
  6
CONTINUOUS
 10
-24961.79025
 20
7173.57025
 11
-24961.79025
 21
7175.237
  0
LINE
  8
┌▓È4
  6
CONTINUOUS
 10
-24961.79025
 20
7175.237
 11
-24961.79025
 21
7178.57025
  0
LINE
  8
┌▓È4
  6
CONTINUOUS
 10
-24961.79025
 20
7178.57025
 11
-24963.457
 21
7180.237
  0
LINE
  8
┌▓È4
  6
CONTINUOUS
 10
-24963.457
 20
7180.237
 11
-24965.1235
 21
7181.9035
  0
LINE
  8
┌▓È4
  6
CONTINUOUS
 10
-24965.1235
 20
7181.9035
 11
-24966.79025
 21
7183.57025
  0
LINE
  8
┌▓È4
  6
CONTINUOUS
 10
-24966.79025
 20
7183.57025
 11
-24968.457
 21
7185.237
  0
LINE
  8
┌▓È4
  6
CONTINUOUS
 10
-24968.457
 20
7185.237
 11
-24970.1235
 21
7186.9035
  0
LINE
  8
┌▓È4
  6
CONTINUOUS
 10
-24970.1235
 20
7186.9035
 11
-24973.457
 21
7186.9035
  0
LINE
  8
┌▓È4
  6
CONTINUOUS
 10
-24973.457
 20
7186.9035
 11
-24975.1235
 21
7186.9035
  0
LINE
  8
┌▓È4
  6
CONTINUOUS
 10
-24975.1235
 20
7186.9035
 11
-24976.79025
 21
7186.9035
  0
LINE
  8
┌▓È4
  6
CONTINUOUS
 10
-24976.79025
 20
7186.9035
 11
-24980.1235
 21
7186.9035
  0
LINE
  8
┌▓È4
  6
CONTINUOUS
 10
-24980.1235
 20
7186.9035
 11
-24981.79025
 21
7185.237
  0
LINE
  8
┌▓È4
  6
CONTINUOUS
 10
-24981.79025
 20
7185.237
 11
-24983.457
 21
7183.57025
  0
LINE
  8
┌▓È4
  6
CONTINUOUS
 10
-24983.457
 20
7183.57025
 11
-24985.1235
 21
7181.9035
  0
LINE
  8
┌▓È4
  6
CONTINUOUS
 10
-24985.1235
 20
7181.9035
 11
-24986.79025
 21
7180.237
  0
LINE
  8
┌▓È4
  6
CONTINUOUS
 10
-24986.79025
 20
7180.237
 11
-24988.457
 21
7178.57025
  0
LINE
  8
┌▓È4
  6
CONTINUOUS
 10
-24988.457
 20
7178.57025
 11
-24988.457
 21
7175.237
  0
LINE
  8
┌▓È4
  6
CONTINUOUS
 10
-24988.457
 20
7175.237
 11
-24988.457
 21
7173.57025
  0
LINE
  8
┌▓È4
  6
CONTINUOUS
 10
-24988.457
 20
7173.57025
 11
-24988.457
 21
7171.9035
  0
LINE
  8
┌▓È4
  6
CONTINUOUS
 10
-24988.457
 20
7171.9035
 11
-24988.457
 21
7168.57025
  0
LINE
  8
┌▓È4
  6
CONTINUOUS
 10
-24988.457
 20
7168.57025
 11
-24986.79025
 21
7166.9035
  0
LINE
  8
┌▓È4
  6
CONTINUOUS
 10
-24986.79025
 20
7166.9035
 11
-24985.1235
 21
7165.237
  0
LINE
  8
┌▓È4
  6
CONTINUOUS
 10
-24985.1235
 20
7165.237
 11
-24983.457
 21
7163.57025
  0
LINE
  8
┌▓È4
  6
CONTINUOUS
 10
-24983.457
 20
7163.57025
 11
-24981.79025
 21
7161.9035
  0
LINE
  8
┌▓È4
  6
CONTINUOUS
 10
-24981.79025
 20
7161.9035
 11
-24980.1235
 21
7160.237
  0
LINE
  8
┌▓È4
  6
CONTINUOUS
 10
-24980.1235
 20
7160.237
 11
-24976.79025
 21
7160.237
  0
LINE
  8
┌▓È4
  6
CONTINUOUS
 10
-24976.79025
 20
7160.237
 11
-24975.1235
 21
7160.237
  0
LINE
  8
┌▓È4
  6
CONTINUOUS
 10
-24975.1235
 20
7160.237
 11
-24973.457
 21
7160.237
  0
LINE
  8
┌▓È4
  6
CONTINUOUS
 10
-24973.457
 20
7160.237
 11
-24970.1235
 21
7160.237
  0
LINE
  8
┌▓È4
  6
CONTINUOUS
 10
-24970.1235
 20
7160.237
 11
-24968.457
 21
7161.9035
  0
LINE
  8
┌▓È4
  6
CONTINUOUS
 10
-24968.457
 20
7161.9035
 11
-24966.79025
 21
7163.57025
  0
LINE
  8
┌▓È4
  6
CONTINUOUS
 10
-24966.79025
 20
7163.57025
 11
-24965.1235
 21
7165.237
  0
LINE
  8
┌▓È4
  6
CONTINUOUS
 10
-24965.1235
 20
7165.237
 11
-24963.457
 21
7166.9035
  0
LINE
  8
┌▓È4
  6
CONTINUOUS
 10
-24963.457
 20
7166.9035
 11
-24961.79025
 21
7168.57025
  0
LINE
  8
┌▓È4
  6
CONTINUOUS
 10
-24961.79025
 20
7168.57025
 11
-24961.79025
 21
7171.9035
  0
LINE
  8
┌▓È4
  6
CONTINUOUS
 10
-24961.79025
 20
7171.9035
 11
-24961.79025
 21
7173.57025
  0
ENDBLK
  0
BLOCK
  2
*GRP_0048
 70
    65
 10
0.0
 20
0.0
  0
LINE
  8
┌▓È4
  6
CONTINUOUS
 10
-24961.79025
 20
7506.9035
 11
-24961.79025
 21
7508.57025
  0
LINE
  8
┌▓È4
  6
CONTINUOUS
 10
-24961.79025
 20
7508.57025
 11
-24961.79025
 21
7511.9035
  0
LINE
  8
┌▓È4
  6
CONTINUOUS
 10
-24961.79025
 20
7511.9035
 11
-24963.457
 21
7513.57025
  0
LINE
  8
┌▓È4
  6
CONTINUOUS
 10
-24963.457
 20
7513.57025
 11
-24965.1235
 21
7515.237
  0
LINE
  8
┌▓È4
  6
CONTINUOUS
 10
-24965.1235
 20
7515.237
 11
-24966.79025
 21
7516.9035
  0
LINE
  8
┌▓È4
  6
CONTINUOUS
 10
-24966.79025
 20
7516.9035
 11
-24968.457
 21
7518.57025
  0
LINE
  8
┌▓È4
  6
CONTINUOUS
 10
-24968.457
 20
7518.57025
 11
-24970.1235
 21
7520.237
  0
LINE
  8
┌▓È4
  6
CONTINUOUS
 10
-24970.1235
 20
7520.237
 11
-24973.457
 21
7520.237
  0
LINE
  8
┌▓È4
  6
CONTINUOUS
 10
-24973.457
 20
7520.237
 11
-24975.1235
 21
7520.237
  0
LINE
  8
┌▓È4
  6
CONTINUOUS
 10
-24975.1235
 20
7520.237
 11
-24976.79025
 21
7520.237
  0
LINE
  8
┌▓È4
  6
CONTINUOUS
 10
-24976.79025
 20
7520.237
 11
-24980.1235
 21
7520.237
  0
LINE
  8
┌▓È4
  6
CONTINUOUS
 10
-24980.1235
 20
7520.237
 11
-24981.79025
 21
7518.57025
  0
LINE
  8
┌▓È4
  6
CONTINUOUS
 10
-24981.79025
 20
7518.57025
 11
-24983.457
 21
7516.9035
  0
LINE
  8
┌▓È4
  6
CONTINUOUS
 10
-24983.457
 20
7516.9035
 11
-24985.1235
 21
7515.237
  0
LINE
  8
┌▓È4
  6
CONTINUOUS
 10
-24985.1235
 20
7515.237
 11
-24986.79025
 21
7513.57025
  0
LINE
  8
┌▓È4
  6
CONTINUOUS
 10
-24986.79025
 20
7513.57025
 11
-24988.457
 21
7511.9035
  0
LINE
  8
┌▓È4
  6
CONTINUOUS
 10
-24988.457
 20
7511.9035
 11
-24988.457
 21
7508.57025
  0
LINE
  8
┌▓È4
  6
CONTINUOUS
 10
-24988.457
 20
7508.57025
 11
-24988.457
 21
7506.9035
  0
LINE
  8
┌▓È4
  6
CONTINUOUS
 10
-24988.457
 20
7506.9035
 11
-24988.457
 21
7505.237
  0
LINE
  8
┌▓È4
  6
CONTINUOUS
 10
-24988.457
 20
7505.237
 11
-24988.457
 21
7501.9035
  0
LINE
  8
┌▓È4
  6
CONTINUOUS
 10
-24988.457
 20
7501.9035
 11
-24986.79025
 21
7500.237
  0
LINE
  8
┌▓È4
  6
CONTINUOUS
 10
-24986.79025
 20
7500.237
 11
-24985.1235
 21
7498.57025
  0
LINE
  8
┌▓È4
  6
CONTINUOUS
 10
-24985.1235
 20
7498.57025
 11
-24983.457
 21
7496.9035
  0
LINE
  8
┌▓È4
  6
CONTINUOUS
 10
-24983.457
 20
7496.9035
 11
-24981.79025
 21
7495.237
  0
LINE
  8
┌▓È4
  6
CONTINUOUS
 10
-24981.79025
 20
7495.237
 11
-24980.1235
 21
7493.57025
  0
LINE
  8
┌▓È4
  6
CONTINUOUS
 10
-24980.1235
 20
7493.57025
 11
-24976.79025
 21
7493.57025
  0
LINE
  8
┌▓È4
  6
CONTINUOUS
 10
-24976.79025
 20
7493.57025
 11
-24975.1235
 21
7493.57025
  0
LINE
  8
┌▓È4
  6
CONTINUOUS
 10
-24975.1235
 20
7493.57025
 11
-24973.457
 21
7493.57025
  0
LINE
  8
┌▓È4
  6
CONTINUOUS
 10
-24973.457
 20
7493.57025
 11
-24970.1235
 21
7493.57025
  0
LINE
  8
┌▓È4
  6
CONTINUOUS
 10
-24970.1235
 20
7493.57025
 11
-24968.457
 21
7495.237
  0
LINE
  8
┌▓È4
  6
CONTINUOUS
 10
-24968.457
 20
7495.237
 11
-24966.79025
 21
7496.9035
  0
LINE
  8
┌▓È4
  6
CONTINUOUS
 10
-24966.79025
 20
7496.9035
 11
-24965.1235
 21
7498.57025
  0
LINE
  8
┌▓È4
  6
CONTINUOUS
 10
-24965.1235
 20
7498.57025
 11
-24963.457
 21
7500.237
  0
LINE
  8
┌▓È4
  6
CONTINUOUS
 10
-24963.457
 20
7500.237
 11
-24961.79025
 21
7501.9035
  0
LINE
  8
┌▓È4
  6
CONTINUOUS
 10
-24961.79025
 20
7501.9035
 11
-24961.79025
 21
7505.237
  0
LINE
  8
┌▓È4
  6
CONTINUOUS
 10
-24961.79025
 20
7505.237
 11
-24961.79025
 21
7506.9035
  0
ENDBLK
  0
BLOCK
  2
*GRP_0049
 70
    65
 10
0.0
 20
0.0
  0
LINE
  8
┌▓È4
  6
CONTINUOUS
 10
1249.838
 20
7340.237
 11
1249.838
 21
7341.9035
  0
LINE
  8
┌▓È4
  6
CONTINUOUS
 10
1249.838
 20
7341.9035
 11
1249.838
 21
7345.237
  0
LINE
  8
┌▓È4
  6
CONTINUOUS
 10
1249.838
 20
7345.237
 11
1251.50475
 21
7346.9035
  0
LINE
  8
┌▓È4
  6
CONTINUOUS
 10
1251.50475
 20
7346.9035
 11
1253.1715
 21
7348.57025
  0
LINE
  8
┌▓È4
  6
CONTINUOUS
 10
1253.1715
 20
7348.57025
 11
1254.838
 21
7350.237
  0
LINE
  8
┌▓È4
  6
CONTINUOUS
 10
1254.838
 20
7350.237
 11
1256.50475
 21
7351.9035
  0
LINE
  8
┌▓È4
  6
CONTINUOUS
 10
1256.50475
 20
7351.9035
 11
1258.1715
 21
7353.57025
  0
LINE
  8
┌▓È4
  6
CONTINUOUS
 10
1258.1715
 20
7353.57025
 11
1261.50475
 21
7353.57025
  0
LINE
  8
┌▓È4
  6
CONTINUOUS
 10
1261.50475
 20
7353.57025
 11
1263.1715
 21
7353.57025
  0
LINE
  8
┌▓È4
  6
CONTINUOUS
 10
1263.1715
 20
7353.57025
 11
1264.838
 21
7353.57025
  0
LINE
  8
┌▓È4
  6
CONTINUOUS
 10
1264.838
 20
7353.57025
 11
1268.1715
 21
7353.57025
  0
LINE
  8
┌▓È4
  6
CONTINUOUS
 10
1268.1715
 20
7353.57025
 11
1269.838
 21
7351.9035
  0
LINE
  8
┌▓È4
  6
CONTINUOUS
 10
1269.838
 20
7351.9035
 11
1271.50475
 21
7350.237
  0
LINE
  8
┌▓È4
  6
CONTINUOUS
 10
1271.50475
 20
7350.237
 11
1273.1715
 21
7348.57025
  0
LINE
  8
┌▓È4
  6
CONTINUOUS
 10
1273.1715
 20
7348.57025
 11
1274.838
 21
7346.9035
  0
LINE
  8
┌▓È4
  6
CONTINUOUS
 10
1274.838
 20
7346.9035
 11
1276.50475
 21
7345.237
  0
LINE
  8
┌▓È4
  6
CONTINUOUS
 10
1276.50475
 20
7345.237
 11
1276.50475
 21
7341.9035
  0
LINE
  8
┌▓È4
  6
CONTINUOUS
 10
1276.50475
 20
7341.9035
 11
1276.50475
 21
7340.237
  0
LINE
  8
┌▓È4
  6
CONTINUOUS
 10
1276.50475
 20
7340.237
 11
1276.50475
 21
7338.57025
  0
LINE
  8
┌▓È4
  6
CONTINUOUS
 10
1276.50475
 20
7338.57025
 11
1276.50475
 21
7335.237
  0
LINE
  8
┌▓È4
  6
CONTINUOUS
 10
1276.50475
 20
7335.237
 11
1274.838
 21
7333.57025
  0
LINE
  8
┌▓È4
  6
CONTINUOUS
 10
1274.838
 20
7333.57025
 11
1273.1715
 21
7331.9035
  0
LINE
  8
┌▓È4
  6
CONTINUOUS
 10
1273.1715
 20
7331.9035
 11
1271.50475
 21
7330.237
  0
LINE
  8
┌▓È4
  6
CONTINUOUS
 10
1271.50475
 20
7330.237
 11
1269.838
 21
7328.57025
  0
LINE
  8
┌▓È4
  6
CONTINUOUS
 10
1269.838
 20
7328.57025
 11
1268.1715
 21
7326.9035
  0
LINE
  8
┌▓È4
  6
CONTINUOUS
 10
1268.1715
 20
7326.9035
 11
1264.838
 21
7326.9035
  0
LINE
  8
┌▓È4
  6
CONTINUOUS
 10
1264.838
 20
7326.9035
 11
1263.1715
 21
7326.9035
  0
LINE
  8
┌▓È4
  6
CONTINUOUS
 10
1263.1715
 20
7326.9035
 11
1261.50475
 21
7326.9035
  0
LINE
  8
┌▓È4
  6
CONTINUOUS
 10
1261.50475
 20
7326.9035
 11
1258.1715
 21
7326.9035
  0
LINE
  8
┌▓È4
  6
CONTINUOUS
 10
1258.1715
 20
7326.9035
 11
1256.50475
 21
7328.57025
  0
LINE
  8
┌▓È4
  6
CONTINUOUS
 10
1256.50475
 20
7328.57025
 11
1254.838
 21
7330.237
  0
LINE
  8
┌▓È4
  6
CONTINUOUS
 10
1254.838
 20
7330.237
 11
1253.1715
 21
7331.9035
  0
LINE
  8
┌▓È4
  6
CONTINUOUS
 10
1253.1715
 20
7331.9035
 11
1251.50475
 21
7333.57025
  0
LINE
  8
┌▓È4
  6
CONTINUOUS
 10
1251.50475
 20
7333.57025
 11
1249.838
 21
7335.237
  0
LINE
  8
┌▓È4
  6
CONTINUOUS
 10
1249.838
 20
7335.237
 11
1249.838
 21
7338.57025
  0
LINE
  8
┌▓È4
  6
CONTINUOUS
 10
1249.838
 20
7338.57025
 11
1249.838
 21
7340.237
  0
ENDBLK
  0
BLOCK
  2
*GRP_0050
 70
    65
 10
0.0
 20
0.0
  0
LINE
  8
┌▓È4
  6
CONTINUOUS
 10
1249.838
 20
7173.57025
 11
1249.838
 21
7175.237
  0
LINE
  8
┌▓È4
  6
CONTINUOUS
 10
1249.838
 20
7175.237
 11
1249.838
 21
7178.57025
  0
LINE
  8
┌▓È4
  6
CONTINUOUS
 10
1249.838
 20
7178.57025
 11
1251.50475
 21
7180.237
  0
LINE
  8
┌▓È4
  6
CONTINUOUS
 10
1251.50475
 20
7180.237
 11
1253.1715
 21
7181.9035
  0
LINE
  8
┌▓È4
  6
CONTINUOUS
 10
1253.1715
 20
7181.9035
 11
1254.838
 21
7183.57025
  0
LINE
  8
┌▓È4
  6
CONTINUOUS
 10
1254.838
 20
7183.57025
 11
1256.50475
 21
7185.237
  0
LINE
  8
┌▓È4
  6
CONTINUOUS
 10
1256.50475
 20
7185.237
 11
1258.1715
 21
7186.9035
  0
LINE
  8
┌▓È4
  6
CONTINUOUS
 10
1258.1715
 20
7186.9035
 11
1261.50475
 21
7186.9035
  0
LINE
  8
┌▓È4
  6
CONTINUOUS
 10
1261.50475
 20
7186.9035
 11
1263.1715
 21
7186.9035
  0
LINE
  8
┌▓È4
  6
CONTINUOUS
 10
1263.1715
 20
7186.9035
 11
1264.838
 21
7186.9035
  0
LINE
  8
┌▓È4
  6
CONTINUOUS
 10
1264.838
 20
7186.9035
 11
1268.1715
 21
7186.9035
  0
LINE
  8
┌▓È4
  6
CONTINUOUS
 10
1268.1715
 20
7186.9035
 11
1269.838
 21
7185.237
  0
LINE
  8
┌▓È4
  6
CONTINUOUS
 10
1269.838
 20
7185.237
 11
1271.50475
 21
7183.57025
  0
LINE
  8
┌▓È4
  6
CONTINUOUS
 10
1271.50475
 20
7183.57025
 11
1273.1715
 21
7181.9035
  0
LINE
  8
┌▓È4
  6
CONTINUOUS
 10
1273.1715
 20
7181.9035
 11
1274.838
 21
7180.237
  0
LINE
  8
┌▓È4
  6
CONTINUOUS
 10
1274.838
 20
7180.237
 11
1276.50475
 21
7178.57025
  0
LINE
  8
┌▓È4
  6
CONTINUOUS
 10
1276.50475
 20
7178.57025
 11
1276.50475
 21
7175.237
  0
LINE
  8
┌▓È4
  6
CONTINUOUS
 10
1276.50475
 20
7175.237
 11
1276.50475
 21
7173.57025
  0
LINE
  8
┌▓È4
  6
CONTINUOUS
 10
1276.50475
 20
7173.57025
 11
1276.50475
 21
7171.9035
  0
LINE
  8
┌▓È4
  6
CONTINUOUS
 10
1276.50475
 20
7171.9035
 11
1276.50475
 21
7168.57025
  0
LINE
  8
┌▓È4
  6
CONTINUOUS
 10
1276.50475
 20
7168.57025
 11
1274.838
 21
7166.9035
  0
LINE
  8
┌▓È4
  6
CONTINUOUS
 10
1274.838
 20
7166.9035
 11
1273.1715
 21
7165.237
  0
LINE
  8
┌▓È4
  6
CONTINUOUS
 10
1273.1715
 20
7165.237
 11
1271.50475
 21
7163.57025
  0
LINE
  8
┌▓È4
  6
CONTINUOUS
 10
1271.50475
 20
7163.57025
 11
1269.838
 21
7161.9035
  0
LINE
  8
┌▓È4
  6
CONTINUOUS
 10
1269.838
 20
7161.9035
 11
1268.1715
 21
7160.237
  0
LINE
  8
┌▓È4
  6
CONTINUOUS
 10
1268.1715
 20
7160.237
 11
1264.838
 21
7160.237
  0
LINE
  8
┌▓È4
  6
CONTINUOUS
 10
1264.838
 20
7160.237
 11
1263.1715
 21
7160.237
  0
LINE
  8
┌▓È4
  6
CONTINUOUS
 10
1263.1715
 20
7160.237
 11
1261.50475
 21
7160.237
  0
LINE
  8
┌▓È4
  6
CONTINUOUS
 10
1261.50475
 20
7160.237
 11
1258.1715
 21
7160.237
  0
LINE
  8
┌▓È4
  6
CONTINUOUS
 10
1258.1715
 20
7160.237
 11
1256.50475
 21
7161.9035
  0
LINE
  8
┌▓È4
  6
CONTINUOUS
 10
1256.50475
 20
7161.9035
 11
1254.838
 21
7163.57025
  0
LINE
  8
┌▓È4
  6
CONTINUOUS
 10
1254.838
 20
7163.57025
 11
1253.1715
 21
7165.237
  0
LINE
  8
┌▓È4
  6
CONTINUOUS
 10
1253.1715
 20
7165.237
 11
1251.50475
 21
7166.9035
  0
LINE
  8
┌▓È4
  6
CONTINUOUS
 10
1251.50475
 20
7166.9035
 11
1249.838
 21
7168.57025
  0
LINE
  8
┌▓È4
  6
CONTINUOUS
 10
1249.838
 20
7168.57025
 11
1249.838
 21
7171.9035
  0
LINE
  8
┌▓È4
  6
CONTINUOUS
 10
1249.838
 20
7171.9035
 11
1249.838
 21
7173.57025
  0
ENDBLK
  0
BLOCK
  2
*GRP_0051
 70
    65
 10
0.0
 20
0.0
  0
LINE
  8
┌▓È4
  6
CONTINUOUS
 10
1249.838
 20
7506.9035
 11
1249.838
 21
7508.57025
  0
LINE
  8
┌▓È4
  6
CONTINUOUS
 10
1249.838
 20
7508.57025
 11
1249.838
 21
7511.9035
  0
LINE
  8
┌▓È4
  6
CONTINUOUS
 10
1249.838
 20
7511.9035
 11
1251.50475
 21
7513.57025
  0
LINE
  8
┌▓È4
  6
CONTINUOUS
 10
1251.50475
 20
7513.57025
 11
1253.1715
 21
7515.237
  0
LINE
  8
┌▓È4
  6
CONTINUOUS
 10
1253.1715
 20
7515.237
 11
1254.838
 21
7516.9035
  0
LINE
  8
┌▓È4
  6
CONTINUOUS
 10
1254.838
 20
7516.9035
 11
1256.50475
 21
7518.57025
  0
LINE
  8
┌▓È4
  6
CONTINUOUS
 10
1256.50475
 20
7518.57025
 11
1258.1715
 21
7520.237
  0
LINE
  8
┌▓È4
  6
CONTINUOUS
 10
1258.1715
 20
7520.237
 11
1261.50475
 21
7520.237
  0
LINE
  8
┌▓È4
  6
CONTINUOUS
 10
1261.50475
 20
7520.237
 11
1263.1715
 21
7520.237
  0
LINE
  8
┌▓È4
  6
CONTINUOUS
 10
1263.1715
 20
7520.237
 11
1264.838
 21
7520.237
  0
LINE
  8
┌▓È4
  6
CONTINUOUS
 10
1264.838
 20
7520.237
 11
1268.1715
 21
7520.237
  0
LINE
  8
┌▓È4
  6
CONTINUOUS
 10
1268.1715
 20
7520.237
 11
1269.838
 21
7518.57025
  0
LINE
  8
┌▓È4
  6
CONTINUOUS
 10
1269.838
 20
7518.57025
 11
1271.50475
 21
7516.9035
  0
LINE
  8
┌▓È4
  6
CONTINUOUS
 10
1271.50475
 20
7516.9035
 11
1273.1715
 21
7515.237
  0
LINE
  8
┌▓È4
  6
CONTINUOUS
 10
1273.1715
 20
7515.237
 11
1274.838
 21
7513.57025
  0
LINE
  8
┌▓È4
  6
CONTINUOUS
 10
1274.838
 20
7513.57025
 11
1276.50475
 21
7511.9035
  0
LINE
  8
┌▓È4
  6
CONTINUOUS
 10
1276.50475
 20
7511.9035
 11
1276.50475
 21
7508.57025
  0
LINE
  8
┌▓È4
  6
CONTINUOUS
 10
1276.50475
 20
7508.57025
 11
1276.50475
 21
7506.9035
  0
LINE
  8
┌▓È4
  6
CONTINUOUS
 10
1276.50475
 20
7506.9035
 11
1276.50475
 21
7505.237
  0
LINE
  8
┌▓È4
  6
CONTINUOUS
 10
1276.50475
 20
7505.237
 11
1276.50475
 21
7501.9035
  0
LINE
  8
┌▓È4
  6
CONTINUOUS
 10
1276.50475
 20
7501.9035
 11
1274.838
 21
7500.237
  0
LINE
  8
┌▓È4
  6
CONTINUOUS
 10
1274.838
 20
7500.237
 11
1273.1715
 21
7498.57025
  0
LINE
  8
┌▓È4
  6
CONTINUOUS
 10
1273.1715
 20
7498.57025
 11
1271.50475
 21
7496.9035
  0
LINE
  8
┌▓È4
  6
CONTINUOUS
 10
1271.50475
 20
7496.9035
 11
1269.838
 21
7495.237
  0
LINE
  8
┌▓È4
  6
CONTINUOUS
 10
1269.838
 20
7495.237
 11
1268.1715
 21
7493.57025
  0
LINE
  8
┌▓È4
  6
CONTINUOUS
 10
1268.1715
 20
7493.57025
 11
1264.838
 21
7493.57025
  0
LINE
  8
┌▓È4
  6
CONTINUOUS
 10
1264.838
 20
7493.57025
 11
1263.1715
 21
7493.57025
  0
LINE
  8
┌▓È4
  6
CONTINUOUS
 10
1263.1715
 20
7493.57025
 11
1261.50475
 21
7493.57025
  0
LINE
  8
┌▓È4
  6
CONTINUOUS
 10
1261.50475
 20
7493.57025
 11
1258.1715
 21
7493.57025
  0
LINE
  8
┌▓È4
  6
CONTINUOUS
 10
1258.1715
 20
7493.57025
 11
1256.50475
 21
7495.237
  0
LINE
  8
┌▓È4
  6
CONTINUOUS
 10
1256.50475
 20
7495.237
 11
1254.838
 21
7496.9035
  0
LINE
  8
┌▓È4
  6
CONTINUOUS
 10
1254.838
 20
7496.9035
 11
1253.1715
 21
7498.57025
  0
LINE
  8
┌▓È4
  6
CONTINUOUS
 10
1253.1715
 20
7498.57025
 11
1251.50475
 21
7500.237
  0
LINE
  8
┌▓È4
  6
CONTINUOUS
 10
1251.50475
 20
7500.237
 11
1249.838
 21
7501.9035
  0
LINE
  8
┌▓È4
  6
CONTINUOUS
 10
1249.838
 20
7501.9035
 11
1249.838
 21
7505.237
  0
LINE
  8
┌▓È4
  6
CONTINUOUS
 10
1249.838
 20
7505.237
 11
1249.838
 21
7506.9035
  0
ENDBLK
  0
BLOCK
  2
*GRP_0052
 70
    65
 10
0.0
 20
0.0
  0
LINE
  8
┌▓È4
  6
CONTINUOUS
 10
1249.838
 20
9823.57025
 11
1249.838
 21
9825.23675
  0
LINE
  8
┌▓È4
  6
CONTINUOUS
 10
1249.838
 20
9825.23675
 11
1249.838
 21
9828.57025
  0
LINE
  8
┌▓È4
  6
CONTINUOUS
 10
1249.838
 20
9828.57025
 11
1251.50475
 21
9830.23675
  0
LINE
  8
┌▓È4
  6
CONTINUOUS
 10
1251.50475
 20
9830.23675
 11
1253.1715
 21
9831.9035
  0
LINE
  8
┌▓È4
  6
CONTINUOUS
 10
1253.1715
 20
9831.9035
 11
1254.838
 21
9833.57025
  0
LINE
  8
┌▓È4
  6
CONTINUOUS
 10
1254.838
 20
9833.57025
 11
1256.50475
 21
9835.23675
  0
LINE
  8
┌▓È4
  6
CONTINUOUS
 10
1256.50475
 20
9835.23675
 11
1258.1715
 21
9836.9035
  0
LINE
  8
┌▓È4
  6
CONTINUOUS
 10
1258.1715
 20
9836.9035
 11
1261.50475
 21
9836.9035
  0
LINE
  8
┌▓È4
  6
CONTINUOUS
 10
1261.50475
 20
9836.9035
 11
1263.1715
 21
9836.9035
  0
LINE
  8
┌▓È4
  6
CONTINUOUS
 10
1263.1715
 20
9836.9035
 11
1264.838
 21
9836.9035
  0
LINE
  8
┌▓È4
  6
CONTINUOUS
 10
1264.838
 20
9836.9035
 11
1268.1715
 21
9836.9035
  0
LINE
  8
┌▓È4
  6
CONTINUOUS
 10
1268.1715
 20
9836.9035
 11
1269.838
 21
9835.23675
  0
LINE
  8
┌▓È4
  6
CONTINUOUS
 10
1269.838
 20
9835.23675
 11
1271.50475
 21
9833.57025
  0
LINE
  8
┌▓È4
  6
CONTINUOUS
 10
1271.50475
 20
9833.57025
 11
1273.1715
 21
9831.9035
  0
LINE
  8
┌▓È4
  6
CONTINUOUS
 10
1273.1715
 20
9831.9035
 11
1274.838
 21
9830.23675
  0
LINE
  8
┌▓È4
  6
CONTINUOUS
 10
1274.838
 20
9830.23675
 11
1276.50475
 21
9828.57025
  0
LINE
  8
┌▓È4
  6
CONTINUOUS
 10
1276.50475
 20
9828.57025
 11
1276.50475
 21
9825.23675
  0
LINE
  8
┌▓È4
  6
CONTINUOUS
 10
1276.50475
 20
9825.23675
 11
1276.50475
 21
9823.57025
  0
LINE
  8
┌▓È4
  6
CONTINUOUS
 10
1276.50475
 20
9823.57025
 11
1276.50475
 21
9821.9035
  0
LINE
  8
┌▓È4
  6
CONTINUOUS
 10
1276.50475
 20
9821.9035
 11
1276.50475
 21
9818.57025
  0
LINE
  8
┌▓È4
  6
CONTINUOUS
 10
1276.50475
 20
9818.57025
 11
1274.838
 21
9816.9035
  0
LINE
  8
┌▓È4
  6
CONTINUOUS
 10
1274.838
 20
9816.9035
 11
1273.1715
 21
9815.23675
  0
LINE
  8
┌▓È4
  6
CONTINUOUS
 10
1273.1715
 20
9815.23675
 11
1271.50475
 21
9813.57025
  0
LINE
  8
┌▓È4
  6
CONTINUOUS
 10
1271.50475
 20
9813.57025
 11
1269.838
 21
9811.9035
  0
LINE
  8
┌▓È4
  6
CONTINUOUS
 10
1269.838
 20
9811.9035
 11
1268.1715
 21
9810.23675
  0
LINE
  8
┌▓È4
  6
CONTINUOUS
 10
1268.1715
 20
9810.23675
 11
1264.838
 21
9810.23675
  0
LINE
  8
┌▓È4
  6
CONTINUOUS
 10
1264.838
 20
9810.23675
 11
1263.1715
 21
9810.23675
  0
LINE
  8
┌▓È4
  6
CONTINUOUS
 10
1263.1715
 20
9810.23675
 11
1261.50475
 21
9810.23675
  0
LINE
  8
┌▓È4
  6
CONTINUOUS
 10
1261.50475
 20
9810.23675
 11
1258.1715
 21
9810.23675
  0
LINE
  8
┌▓È4
  6
CONTINUOUS
 10
1258.1715
 20
9810.23675
 11
1256.50475
 21
9811.9035
  0
LINE
  8
┌▓È4
  6
CONTINUOUS
 10
1256.50475
 20
9811.9035
 11
1254.838
 21
9813.57025
  0
LINE
  8
┌▓È4
  6
CONTINUOUS
 10
1254.838
 20
9813.57025
 11
1253.1715
 21
9815.23675
  0
LINE
  8
┌▓È4
  6
CONTINUOUS
 10
1253.1715
 20
9815.23675
 11
1251.50475
 21
9816.9035
  0
LINE
  8
┌▓È4
  6
CONTINUOUS
 10
1251.50475
 20
9816.9035
 11
1249.838
 21
9818.57025
  0
LINE
  8
┌▓È4
  6
CONTINUOUS
 10
1249.838
 20
9818.57025
 11
1249.838
 21
9821.9035
  0
LINE
  8
┌▓È4
  6
CONTINUOUS
 10
1249.838
 20
9821.9035
 11
1249.838
 21
9823.57025
  0
ENDBLK
  0
BLOCK
  2
*GRP_0053
 70
    65
 10
0.0
 20
0.0
  0
LINE
  8
┌▓È4
  6
CONTINUOUS
 10
1249.838
 20
9656.9035
 11
1249.838
 21
9658.57025
  0
LINE
  8
┌▓È4
  6
CONTINUOUS
 10
1249.838
 20
9658.57025
 11
1249.838
 21
9661.9035
  0
LINE
  8
┌▓È4
  6
CONTINUOUS
 10
1249.838
 20
9661.9035
 11
1251.50475
 21
9663.57025
  0
LINE
  8
┌▓È4
  6
CONTINUOUS
 10
1251.50475
 20
9663.57025
 11
1253.1715
 21
9665.23675
  0
LINE
  8
┌▓È4
  6
CONTINUOUS
 10
1253.1715
 20
9665.23675
 11
1254.838
 21
9666.9035
  0
LINE
  8
┌▓È4
  6
CONTINUOUS
 10
1254.838
 20
9666.9035
 11
1256.50475
 21
9668.57025
  0
LINE
  8
┌▓È4
  6
CONTINUOUS
 10
1256.50475
 20
9668.57025
 11
1258.1715
 21
9670.23675
  0
LINE
  8
┌▓È4
  6
CONTINUOUS
 10
1258.1715
 20
9670.23675
 11
1261.50475
 21
9670.23675
  0
LINE
  8
┌▓È4
  6
CONTINUOUS
 10
1261.50475
 20
9670.23675
 11
1263.1715
 21
9670.23675
  0
LINE
  8
┌▓È4
  6
CONTINUOUS
 10
1263.1715
 20
9670.23675
 11
1264.838
 21
9670.23675
  0
LINE
  8
┌▓È4
  6
CONTINUOUS
 10
1264.838
 20
9670.23675
 11
1268.1715
 21
9670.23675
  0
LINE
  8
┌▓È4
  6
CONTINUOUS
 10
1268.1715
 20
9670.23675
 11
1269.838
 21
9668.57025
  0
LINE
  8
┌▓È4
  6
CONTINUOUS
 10
1269.838
 20
9668.57025
 11
1271.50475
 21
9666.9035
  0
LINE
  8
┌▓È4
  6
CONTINUOUS
 10
1271.50475
 20
9666.9035
 11
1273.1715
 21
9665.23675
  0
LINE
  8
┌▓È4
  6
CONTINUOUS
 10
1273.1715
 20
9665.23675
 11
1274.838
 21
9663.57025
  0
LINE
  8
┌▓È4
  6
CONTINUOUS
 10
1274.838
 20
9663.57025
 11
1276.50475
 21
9661.9035
  0
LINE
  8
┌▓È4
  6
CONTINUOUS
 10
1276.50475
 20
9661.9035
 11
1276.50475
 21
9658.57025
  0
LINE
  8
┌▓È4
  6
CONTINUOUS
 10
1276.50475
 20
9658.57025
 11
1276.50475
 21
9656.9035
  0
LINE
  8
┌▓È4
  6
CONTINUOUS
 10
1276.50475
 20
9656.9035
 11
1276.50475
 21
9655.23675
  0
LINE
  8
┌▓È4
  6
CONTINUOUS
 10
1276.50475
 20
9655.23675
 11
1276.50475
 21
9651.9035
  0
LINE
  8
┌▓È4
  6
CONTINUOUS
 10
1276.50475
 20
9651.9035
 11
1274.838
 21
9650.23675
  0
LINE
  8
┌▓È4
  6
CONTINUOUS
 10
1274.838
 20
9650.23675
 11
1273.1715
 21
9648.57025
  0
LINE
  8
┌▓È4
  6
CONTINUOUS
 10
1273.1715
 20
9648.57025
 11
1271.50475
 21
9646.9035
  0
LINE
  8
┌▓È4
  6
CONTINUOUS
 10
1271.50475
 20
9646.9035
 11
1269.838
 21
9645.23675
  0
LINE
  8
┌▓È4
  6
CONTINUOUS
 10
1269.838
 20
9645.23675
 11
1268.1715
 21
9643.57025
  0
LINE
  8
┌▓È4
  6
CONTINUOUS
 10
1268.1715
 20
9643.57025
 11
1264.838
 21
9643.57025
  0
LINE
  8
┌▓È4
  6
CONTINUOUS
 10
1264.838
 20
9643.57025
 11
1263.1715
 21
9643.57025
  0
LINE
  8
┌▓È4
  6
CONTINUOUS
 10
1263.1715
 20
9643.57025
 11
1261.50475
 21
9643.57025
  0
LINE
  8
┌▓È4
  6
CONTINUOUS
 10
1261.50475
 20
9643.57025
 11
1258.1715
 21
9643.57025
  0
LINE
  8
┌▓È4
  6
CONTINUOUS
 10
1258.1715
 20
9643.57025
 11
1256.50475
 21
9645.23675
  0
LINE
  8
┌▓È4
  6
CONTINUOUS
 10
1256.50475
 20
9645.23675
 11
1254.838
 21
9646.9035
  0
LINE
  8
┌▓È4
  6
CONTINUOUS
 10
1254.838
 20
9646.9035
 11
1253.1715
 21
9648.57025
  0
LINE
  8
┌▓È4
  6
CONTINUOUS
 10
1253.1715
 20
9648.57025
 11
1251.50475
 21
9650.23675
  0
LINE
  8
┌▓È4
  6
CONTINUOUS
 10
1251.50475
 20
9650.23675
 11
1249.838
 21
9651.9035
  0
LINE
  8
┌▓È4
  6
CONTINUOUS
 10
1249.838
 20
9651.9035
 11
1249.838
 21
9655.23675
  0
LINE
  8
┌▓È4
  6
CONTINUOUS
 10
1249.838
 20
9655.23675
 11
1249.838
 21
9656.9035
  0
ENDBLK
  0
BLOCK
  2
*GRP_0054
 70
    65
 10
0.0
 20
0.0
  0
LINE
  8
┌▓È4
  6
CONTINUOUS
 10
1249.838
 20
9990.23675
 11
1249.838
 21
9991.9035
  0
LINE
  8
┌▓È4
  6
CONTINUOUS
 10
1249.838
 20
9991.9035
 11
1249.838
 21
9995.23675
  0
LINE
  8
┌▓È4
  6
CONTINUOUS
 10
1249.838
 20
9995.23675
 11
1251.50475
 21
9996.9035
  0
LINE
  8
┌▓È4
  6
CONTINUOUS
 10
1251.50475
 20
9996.9035
 11
1253.1715
 21
9998.57025
  0
LINE
  8
┌▓È4
  6
CONTINUOUS
 10
1253.1715
 20
9998.57025
 11
1254.838
 21
10000.23675
  0
LINE
  8
┌▓È4
  6
CONTINUOUS
 10
1254.838
 20
10000.23675
 11
1256.50475
 21
10001.9035
  0
LINE
  8
┌▓È4
  6
CONTINUOUS
 10
1256.50475
 20
10001.9035
 11
1258.1715
 21
10003.57025
  0
LINE
  8
┌▓È4
  6
CONTINUOUS
 10
1258.1715
 20
10003.57025
 11
1261.50475
 21
10003.57025
  0
LINE
  8
┌▓È4
  6
CONTINUOUS
 10
1261.50475
 20
10003.57025
 11
1263.1715
 21
10003.57025
  0
LINE
  8
┌▓È4
  6
CONTINUOUS
 10
1263.1715
 20
10003.57025
 11
1264.838
 21
10003.57025
  0
LINE
  8
┌▓È4
  6
CONTINUOUS
 10
1264.838
 20
10003.57025
 11
1268.1715
 21
10003.57025
  0
LINE
  8
┌▓È4
  6
CONTINUOUS
 10
1268.1715
 20
10003.57025
 11
1269.838
 21
10001.9035
  0
LINE
  8
┌▓È4
  6
CONTINUOUS
 10
1269.838
 20
10001.9035
 11
1271.50475
 21
10000.23675
  0
LINE
  8
┌▓È4
  6
CONTINUOUS
 10
1271.50475
 20
10000.23675
 11
1273.1715
 21
9998.57025
  0
LINE
  8
┌▓È4
  6
CONTINUOUS
 10
1273.1715
 20
9998.57025
 11
1274.838
 21
9996.9035
  0
LINE
  8
┌▓È4
  6
CONTINUOUS
 10
1274.838
 20
9996.9035
 11
1276.50475
 21
9995.23675
  0
LINE
  8
┌▓È4
  6
CONTINUOUS
 10
1276.50475
 20
9995.23675
 11
1276.50475
 21
9991.9035
  0
LINE
  8
┌▓È4
  6
CONTINUOUS
 10
1276.50475
 20
9991.9035
 11
1276.50475
 21
9990.23675
  0
LINE
  8
┌▓È4
  6
CONTINUOUS
 10
1276.50475
 20
9990.23675
 11
1276.50475
 21
9988.57025
  0
LINE
  8
┌▓È4
  6
CONTINUOUS
 10
1276.50475
 20
9988.57025
 11
1276.50475
 21
9985.23675
  0
LINE
  8
┌▓È4
  6
CONTINUOUS
 10
1276.50475
 20
9985.23675
 11
1274.838
 21
9983.57025
  0
LINE
  8
┌▓È4
  6
CONTINUOUS
 10
1274.838
 20
9983.57025
 11
1273.1715
 21
9981.9035
  0
LINE
  8
┌▓È4
  6
CONTINUOUS
 10
1273.1715
 20
9981.9035
 11
1271.50475
 21
9980.23675
  0
LINE
  8
┌▓È4
  6
CONTINUOUS
 10
1271.50475
 20
9980.23675
 11
1269.838
 21
9978.57025
  0
LINE
  8
┌▓È4
  6
CONTINUOUS
 10
1269.838
 20
9978.57025
 11
1268.1715
 21
9976.9035
  0
LINE
  8
┌▓È4
  6
CONTINUOUS
 10
1268.1715
 20
9976.9035
 11
1264.838
 21
9976.9035
  0
LINE
  8
┌▓È4
  6
CONTINUOUS
 10
1264.838
 20
9976.9035
 11
1263.1715
 21
9976.9035
  0
LINE
  8
┌▓È4
  6
CONTINUOUS
 10
1263.1715
 20
9976.9035
 11
1261.50475
 21
9976.9035
  0
LINE
  8
┌▓È4
  6
CONTINUOUS
 10
1261.50475
 20
9976.9035
 11
1258.1715
 21
9976.9035
  0
LINE
  8
┌▓È4
  6
CONTINUOUS
 10
1258.1715
 20
9976.9035
 11
1256.50475
 21
9978.57025
  0
LINE
  8
┌▓È4
  6
CONTINUOUS
 10
1256.50475
 20
9978.57025
 11
1254.838
 21
9980.23675
  0
LINE
  8
┌▓È4
  6
CONTINUOUS
 10
1254.838
 20
9980.23675
 11
1253.1715
 21
9981.9035
  0
LINE
  8
┌▓È4
  6
CONTINUOUS
 10
1253.1715
 20
9981.9035
 11
1251.50475
 21
9983.57025
  0
LINE
  8
┌▓È4
  6
CONTINUOUS
 10
1251.50475
 20
9983.57025
 11
1249.838
 21
9985.23675
  0
LINE
  8
┌▓È4
  6
CONTINUOUS
 10
1249.838
 20
9985.23675
 11
1249.838
 21
9988.57025
  0
LINE
  8
┌▓È4
  6
CONTINUOUS
 10
1249.838
 20
9988.57025
 11
1249.838
 21
9990.23675
  0
ENDBLK
  0
BLOCK
  2
*GRP_0055
 70
    65
 10
0.0
 20
0.0
  0
LINE
  8
┌▓È4
  6
CONTINUOUS
 10
1249.838
 20
10790.23675
 11
1249.838
 21
10791.90325
  0
LINE
  8
┌▓È4
  6
CONTINUOUS
 10
1249.838
 20
10791.90325
 11
1249.838
 21
10795.23675
  0
LINE
  8
┌▓È4
  6
CONTINUOUS
 10
1249.838
 20
10795.23675
 11
1251.50475
 21
10796.90325
  0
LINE
  8
┌▓È4
  6
CONTINUOUS
 10
1251.50475
 20
10796.90325
 11
1253.1715
 21
10798.57
  0
LINE
  8
┌▓È4
  6
CONTINUOUS
 10
1253.1715
 20
10798.57
 11
1254.838
 21
10800.23675
  0
LINE
  8
┌▓È4
  6
CONTINUOUS
 10
1254.838
 20
10800.23675
 11
1256.50475
 21
10801.90325
  0
LINE
  8
┌▓È4
  6
CONTINUOUS
 10
1256.50475
 20
10801.90325
 11
1258.1715
 21
10803.57
  0
LINE
  8
┌▓È4
  6
CONTINUOUS
 10
1258.1715
 20
10803.57
 11
1261.50475
 21
10803.57
  0
LINE
  8
┌▓È4
  6
CONTINUOUS
 10
1261.50475
 20
10803.57
 11
1263.1715
 21
10803.57
  0
LINE
  8
┌▓È4
  6
CONTINUOUS
 10
1263.1715
 20
10803.57
 11
1264.838
 21
10803.57
  0
LINE
  8
┌▓È4
  6
CONTINUOUS
 10
1264.838
 20
10803.57
 11
1268.1715
 21
10803.57
  0
LINE
  8
┌▓È4
  6
CONTINUOUS
 10
1268.1715
 20
10803.57
 11
1269.838
 21
10801.90325
  0
LINE
  8
┌▓È4
  6
CONTINUOUS
 10
1269.838
 20
10801.90325
 11
1271.50475
 21
10800.23675
  0
LINE
  8
┌▓È4
  6
CONTINUOUS
 10
1271.50475
 20
10800.23675
 11
1273.1715
 21
10798.57
  0
LINE
  8
┌▓È4
  6
CONTINUOUS
 10
1273.1715
 20
10798.57
 11
1274.838
 21
10796.90325
  0
LINE
  8
┌▓È4
  6
CONTINUOUS
 10
1274.838
 20
10796.90325
 11
1276.50475
 21
10795.23675
  0
LINE
  8
┌▓È4
  6
CONTINUOUS
 10
1276.50475
 20
10795.23675
 11
1276.50475
 21
10791.90325
  0
LINE
  8
┌▓È4
  6
CONTINUOUS
 10
1276.50475
 20
10791.90325
 11
1276.50475
 21
10790.23675
  0
LINE
  8
┌▓È4
  6
CONTINUOUS
 10
1276.50475
 20
10790.23675
 11
1276.50475
 21
10788.57
  0
LINE
  8
┌▓È4
  6
CONTINUOUS
 10
1276.50475
 20
10788.57
 11
1276.50475
 21
10785.23675
  0
LINE
  8
┌▓È4
  6
CONTINUOUS
 10
1276.50475
 20
10785.23675
 11
1274.838
 21
10783.57
  0
LINE
  8
┌▓È4
  6
CONTINUOUS
 10
1274.838
 20
10783.57
 11
1273.1715
 21
10781.90325
  0
LINE
  8
┌▓È4
  6
CONTINUOUS
 10
1273.1715
 20
10781.90325
 11
1271.50475
 21
10780.23675
  0
LINE
  8
┌▓È4
  6
CONTINUOUS
 10
1271.50475
 20
10780.23675
 11
1269.838
 21
10778.57
  0
LINE
  8
┌▓È4
  6
CONTINUOUS
 10
1269.838
 20
10778.57
 11
1268.1715
 21
10776.90325
  0
LINE
  8
┌▓È4
  6
CONTINUOUS
 10
1268.1715
 20
10776.90325
 11
1264.838
 21
10776.90325
  0
LINE
  8
┌▓È4
  6
CONTINUOUS
 10
1264.838
 20
10776.90325
 11
1263.1715
 21
10776.90325
  0
LINE
  8
┌▓È4
  6
CONTINUOUS
 10
1263.1715
 20
10776.90325
 11
1261.50475
 21
10776.90325
  0
LINE
  8
┌▓È4
  6
CONTINUOUS
 10
1261.50475
 20
10776.90325
 11
1258.1715
 21
10776.90325
  0
LINE
  8
┌▓È4
  6
CONTINUOUS
 10
1258.1715
 20
10776.90325
 11
1256.50475
 21
10778.57
  0
LINE
  8
┌▓È4
  6
CONTINUOUS
 10
1256.50475
 20
10778.57
 11
1254.838
 21
10780.23675
  0
LINE
  8
┌▓È4
  6
CONTINUOUS
 10
1254.838
 20
10780.23675
 11
1253.1715
 21
10781.90325
  0
LINE
  8
┌▓È4
  6
CONTINUOUS
 10
1253.1715
 20
10781.90325
 11
1251.50475
 21
10783.57
  0
LINE
  8
┌▓È4
  6
CONTINUOUS
 10
1251.50475
 20
10783.57
 11
1249.838
 21
10785.23675
  0
LINE
  8
┌▓È4
  6
CONTINUOUS
 10
1249.838
 20
10785.23675
 11
1249.838
 21
10788.57
  0
LINE
  8
┌▓È4
  6
CONTINUOUS
 10
1249.838
 20
10788.57
 11
1249.838
 21
10790.23675
  0
ENDBLK
  0
BLOCK
  2
*GRP_0056
 70
    65
 10
0.0
 20
0.0
  0
LINE
  8
┌▓È4
  6
CONTINUOUS
 10
1249.838
 20
10623.57
 11
1249.838
 21
10625.23675
  0
LINE
  8
┌▓È4
  6
CONTINUOUS
 10
1249.838
 20
10625.23675
 11
1249.838
 21
10628.57
  0
LINE
  8
┌▓È4
  6
CONTINUOUS
 10
1249.838
 20
10628.57
 11
1251.50475
 21
10630.23675
  0
LINE
  8
┌▓È4
  6
CONTINUOUS
 10
1251.50475
 20
10630.23675
 11
1253.1715
 21
10631.90325
  0
LINE
  8
┌▓È4
  6
CONTINUOUS
 10
1253.1715
 20
10631.90325
 11
1254.838
 21
10633.57
  0
LINE
  8
┌▓È4
  6
CONTINUOUS
 10
1254.838
 20
10633.57
 11
1256.50475
 21
10635.23675
  0
LINE
  8
┌▓È4
  6
CONTINUOUS
 10
1256.50475
 20
10635.23675
 11
1258.1715
 21
10636.90325
  0
LINE
  8
┌▓È4
  6
CONTINUOUS
 10
1258.1715
 20
10636.90325
 11
1261.50475
 21
10636.90325
  0
LINE
  8
┌▓È4
  6
CONTINUOUS
 10
1261.50475
 20
10636.90325
 11
1263.1715
 21
10636.90325
  0
LINE
  8
┌▓È4
  6
CONTINUOUS
 10
1263.1715
 20
10636.90325
 11
1264.838
 21
10636.90325
  0
LINE
  8
┌▓È4
  6
CONTINUOUS
 10
1264.838
 20
10636.90325
 11
1268.1715
 21
10636.90325
  0
LINE
  8
┌▓È4
  6
CONTINUOUS
 10
1268.1715
 20
10636.90325
 11
1269.838
 21
10635.23675
  0
LINE
  8
┌▓È4
  6
CONTINUOUS
 10
1269.838
 20
10635.23675
 11
1271.50475
 21
10633.57
  0
LINE
  8
┌▓È4
  6
CONTINUOUS
 10
1271.50475
 20
10633.57
 11
1273.1715
 21
10631.90325
  0
LINE
  8
┌▓È4
  6
CONTINUOUS
 10
1273.1715
 20
10631.90325
 11
1274.838
 21
10630.23675
  0
LINE
  8
┌▓È4
  6
CONTINUOUS
 10
1274.838
 20
10630.23675
 11
1276.50475
 21
10628.57
  0
LINE
  8
┌▓È4
  6
CONTINUOUS
 10
1276.50475
 20
10628.57
 11
1276.50475
 21
10625.23675
  0
LINE
  8
┌▓È4
  6
CONTINUOUS
 10
1276.50475
 20
10625.23675
 11
1276.50475
 21
10623.57
  0
LINE
  8
┌▓È4
  6
CONTINUOUS
 10
1276.50475
 20
10623.57
 11
1276.50475
 21
10621.90325
  0
LINE
  8
┌▓È4
  6
CONTINUOUS
 10
1276.50475
 20
10621.90325
 11
1276.50475
 21
10618.57
  0
LINE
  8
┌▓È4
  6
CONTINUOUS
 10
1276.50475
 20
10618.57
 11
1274.838
 21
10616.90325
  0
LINE
  8
┌▓È4
  6
CONTINUOUS
 10
1274.838
 20
10616.90325
 11
1273.1715
 21
10615.23675
  0
LINE
  8
┌▓È4
  6
CONTINUOUS
 10
1273.1715
 20
10615.23675
 11
1271.50475
 21
10613.57
  0
LINE
  8
┌▓È4
  6
CONTINUOUS
 10
1271.50475
 20
10613.57
 11
1269.838
 21
10611.90325
  0
LINE
  8
┌▓È4
  6
CONTINUOUS
 10
1269.838
 20
10611.90325
 11
1268.1715
 21
10610.23675
  0
LINE
  8
┌▓È4
  6
CONTINUOUS
 10
1268.1715
 20
10610.23675
 11
1264.838
 21
10610.23675
  0
LINE
  8
┌▓È4
  6
CONTINUOUS
 10
1264.838
 20
10610.23675
 11
1263.1715
 21
10610.23675
  0
LINE
  8
┌▓È4
  6
CONTINUOUS
 10
1263.1715
 20
10610.23675
 11
1261.50475
 21
10610.23675
  0
LINE
  8
┌▓È4
  6
CONTINUOUS
 10
1261.50475
 20
10610.23675
 11
1258.1715
 21
10610.23675
  0
LINE
  8
┌▓È4
  6
CONTINUOUS
 10
1258.1715
 20
10610.23675
 11
1256.50475
 21
10611.90325
  0
LINE
  8
┌▓È4
  6
CONTINUOUS
 10
1256.50475
 20
10611.90325
 11
1254.838
 21
10613.57
  0
LINE
  8
┌▓È4
  6
CONTINUOUS
 10
1254.838
 20
10613.57
 11
1253.1715
 21
10615.23675
  0
LINE
  8
┌▓È4
  6
CONTINUOUS
 10
1253.1715
 20
10615.23675
 11
1251.50475
 21
10616.90325
  0
LINE
  8
┌▓È4
  6
CONTINUOUS
 10
1251.50475
 20
10616.90325
 11
1249.838
 21
10618.57
  0
LINE
  8
┌▓È4
  6
CONTINUOUS
 10
1249.838
 20
10618.57
 11
1249.838
 21
10621.90325
  0
LINE
  8
┌▓È4
  6
CONTINUOUS
 10
1249.838
 20
10621.90325
 11
1249.838
 21
10623.57
  0
ENDBLK
  0
BLOCK
  2
*GRP_0057
 70
    65
 10
0.0
 20
0.0
  0
LINE
  8
┌▓È4
  6
CONTINUOUS
 10
1249.838
 20
10956.90325
 11
1249.838
 21
10958.57
  0
LINE
  8
┌▓È4
  6
CONTINUOUS
 10
1249.838
 20
10958.57
 11
1249.838
 21
10961.90325
  0
LINE
  8
┌▓È4
  6
CONTINUOUS
 10
1249.838
 20
10961.90325
 11
1251.50475
 21
10963.57
  0
LINE
  8
┌▓È4
  6
CONTINUOUS
 10
1251.50475
 20
10963.57
 11
1253.1715
 21
10965.23675
  0
LINE
  8
┌▓È4
  6
CONTINUOUS
 10
1253.1715
 20
10965.23675
 11
1254.838
 21
10966.90325
  0
LINE
  8
┌▓È4
  6
CONTINUOUS
 10
1254.838
 20
10966.90325
 11
1256.50475
 21
10968.57
  0
LINE
  8
┌▓È4
  6
CONTINUOUS
 10
1256.50475
 20
10968.57
 11
1258.1715
 21
10970.23675
  0
LINE
  8
┌▓È4
  6
CONTINUOUS
 10
1258.1715
 20
10970.23675
 11
1261.50475
 21
10970.23675
  0
LINE
  8
┌▓È4
  6
CONTINUOUS
 10
1261.50475
 20
10970.23675
 11
1263.1715
 21
10970.23675
  0
LINE
  8
┌▓È4
  6
CONTINUOUS
 10
1263.1715
 20
10970.23675
 11
1264.838
 21
10970.23675
  0
LINE
  8
┌▓È4
  6
CONTINUOUS
 10
1264.838
 20
10970.23675
 11
1268.1715
 21
10970.23675
  0
LINE
  8
┌▓È4
  6
CONTINUOUS
 10
1268.1715
 20
10970.23675
 11
1269.838
 21
10968.57
  0
LINE
  8
┌▓È4
  6
CONTINUOUS
 10
1269.838
 20
10968.57
 11
1271.50475
 21
10966.90325
  0
LINE
  8
┌▓È4
  6
CONTINUOUS
 10
1271.50475
 20
10966.90325
 11
1273.1715
 21
10965.23675
  0
LINE
  8
┌▓È4
  6
CONTINUOUS
 10
1273.1715
 20
10965.23675
 11
1274.838
 21
10963.57
  0
LINE
  8
┌▓È4
  6
CONTINUOUS
 10
1274.838
 20
10963.57
 11
1276.50475
 21
10961.90325
  0
LINE
  8
┌▓È4
  6
CONTINUOUS
 10
1276.50475
 20
10961.90325
 11
1276.50475
 21
10958.57
  0
LINE
  8
┌▓È4
  6
CONTINUOUS
 10
1276.50475
 20
10958.57
 11
1276.50475
 21
10956.90325
  0
LINE
  8
┌▓È4
  6
CONTINUOUS
 10
1276.50475
 20
10956.90325
 11
1276.50475
 21
10955.23675
  0
LINE
  8
┌▓È4
  6
CONTINUOUS
 10
1276.50475
 20
10955.23675
 11
1276.50475
 21
10951.90325
  0
LINE
  8
┌▓È4
  6
CONTINUOUS
 10
1276.50475
 20
10951.90325
 11
1274.838
 21
10950.23675
  0
LINE
  8
┌▓È4
  6
CONTINUOUS
 10
1274.838
 20
10950.23675
 11
1273.1715
 21
10948.57
  0
LINE
  8
┌▓È4
  6
CONTINUOUS
 10
1273.1715
 20
10948.57
 11
1271.50475
 21
10946.90325
  0
LINE
  8
┌▓È4
  6
CONTINUOUS
 10
1271.50475
 20
10946.90325
 11
1269.838
 21
10945.23675
  0
LINE
  8
┌▓È4
  6
CONTINUOUS
 10
1269.838
 20
10945.23675
 11
1268.1715
 21
10943.57
  0
LINE
  8
┌▓È4
  6
CONTINUOUS
 10
1268.1715
 20
10943.57
 11
1264.838
 21
10943.57
  0
LINE
  8
┌▓È4
  6
CONTINUOUS
 10
1264.838
 20
10943.57
 11
1263.1715
 21
10943.57
  0
LINE
  8
┌▓È4
  6
CONTINUOUS
 10
1263.1715
 20
10943.57
 11
1261.50475
 21
10943.57
  0
LINE
  8
┌▓È4
  6
CONTINUOUS
 10
1261.50475
 20
10943.57
 11
1258.1715
 21
10943.57
  0
LINE
  8
┌▓È4
  6
CONTINUOUS
 10
1258.1715
 20
10943.57
 11
1256.50475
 21
10945.23675
  0
LINE
  8
┌▓È4
  6
CONTINUOUS
 10
1256.50475
 20
10945.23675
 11
1254.838
 21
10946.90325
  0
LINE
  8
┌▓È4
  6
CONTINUOUS
 10
1254.838
 20
10946.90325
 11
1253.1715
 21
10948.57
  0
LINE
  8
┌▓È4
  6
CONTINUOUS
 10
1253.1715
 20
10948.57
 11
1251.50475
 21
10950.23675
  0
LINE
  8
┌▓È4
  6
CONTINUOUS
 10
1251.50475
 20
10950.23675
 11
1249.838
 21
10951.90325
  0
LINE
  8
┌▓È4
  6
CONTINUOUS
 10
1249.838
 20
10951.90325
 11
1249.838
 21
10955.23675
  0
LINE
  8
┌▓È4
  6
CONTINUOUS
 10
1249.838
 20
10955.23675
 11
1249.838
 21
10956.90325
  0
ENDBLK
  0
BLOCK
  2
*GRP_0058
 70
    65
 10
0.0
 20
0.0
  0
LINE
  8
┌▓È4
  6
CONTINUOUS
 10
173.17125
 20
9823.57025
 11
173.17125
 21
9825.23675
  0
LINE
  8
┌▓È4
  6
CONTINUOUS
 10
173.17125
 20
9825.23675
 11
173.17125
 21
9828.57025
  0
LINE
  8
┌▓È4
  6
CONTINUOUS
 10
173.17125
 20
9828.57025
 11
174.838
 21
9830.23675
  0
LINE
  8
┌▓È4
  6
CONTINUOUS
 10
174.838
 20
9830.23675
 11
176.5045
 21
9831.9035
  0
LINE
  8
┌▓È4
  6
CONTINUOUS
 10
176.5045
 20
9831.9035
 11
178.17125
 21
9833.57025
  0
LINE
  8
┌▓È4
  6
CONTINUOUS
 10
178.17125
 20
9833.57025
 11
179.838
 21
9835.23675
  0
LINE
  8
┌▓È4
  6
CONTINUOUS
 10
179.838
 20
9835.23675
 11
181.5045
 21
9836.9035
  0
LINE
  8
┌▓È4
  6
CONTINUOUS
 10
181.5045
 20
9836.9035
 11
184.838
 21
9836.9035
  0
LINE
  8
┌▓È4
  6
CONTINUOUS
 10
184.838
 20
9836.9035
 11
186.5045
 21
9836.9035
  0
LINE
  8
┌▓È4
  6
CONTINUOUS
 10
186.5045
 20
9836.9035
 11
188.17125
 21
9836.9035
  0
LINE
  8
┌▓È4
  6
CONTINUOUS
 10
188.17125
 20
9836.9035
 11
191.5045
 21
9836.9035
  0
LINE
  8
┌▓È4
  6
CONTINUOUS
 10
191.5045
 20
9836.9035
 11
193.17125
 21
9835.23675
  0
LINE
  8
┌▓È4
  6
CONTINUOUS
 10
193.17125
 20
9835.23675
 11
194.838
 21
9833.57025
  0
LINE
  8
┌▓È4
  6
CONTINUOUS
 10
194.838
 20
9833.57025
 11
196.5045
 21
9831.9035
  0
LINE
  8
┌▓È4
  6
CONTINUOUS
 10
196.5045
 20
9831.9035
 11
198.17125
 21
9830.23675
  0
LINE
  8
┌▓È4
  6
CONTINUOUS
 10
198.17125
 20
9830.23675
 11
199.838
 21
9828.57025
  0
LINE
  8
┌▓È4
  6
CONTINUOUS
 10
199.838
 20
9828.57025
 11
199.838
 21
9825.23675
  0
LINE
  8
┌▓È4
  6
CONTINUOUS
 10
199.838
 20
9825.23675
 11
199.838
 21
9823.57025
  0
LINE
  8
┌▓È4
  6
CONTINUOUS
 10
199.838
 20
9823.57025
 11
199.838
 21
9821.9035
  0
LINE
  8
┌▓È4
  6
CONTINUOUS
 10
199.838
 20
9821.9035
 11
199.838
 21
9818.57025
  0
LINE
  8
┌▓È4
  6
CONTINUOUS
 10
199.838
 20
9818.57025
 11
198.17125
 21
9816.9035
  0
LINE
  8
┌▓È4
  6
CONTINUOUS
 10
198.17125
 20
9816.9035
 11
196.5045
 21
9815.23675
  0
LINE
  8
┌▓È4
  6
CONTINUOUS
 10
196.5045
 20
9815.23675
 11
194.838
 21
9813.57025
  0
LINE
  8
┌▓È4
  6
CONTINUOUS
 10
194.838
 20
9813.57025
 11
193.17125
 21
9811.9035
  0
LINE
  8
┌▓È4
  6
CONTINUOUS
 10
193.17125
 20
9811.9035
 11
191.5045
 21
9810.23675
  0
LINE
  8
┌▓È4
  6
CONTINUOUS
 10
191.5045
 20
9810.23675
 11
188.17125
 21
9810.23675
  0
LINE
  8
┌▓È4
  6
CONTINUOUS
 10
188.17125
 20
9810.23675
 11
186.5045
 21
9810.23675
  0
LINE
  8
┌▓È4
  6
CONTINUOUS
 10
186.5045
 20
9810.23675
 11
184.838
 21
9810.23675
  0
LINE
  8
┌▓È4
  6
CONTINUOUS
 10
184.838
 20
9810.23675
 11
181.5045
 21
9810.23675
  0
LINE
  8
┌▓È4
  6
CONTINUOUS
 10
181.5045
 20
9810.23675
 11
179.838
 21
9811.9035
  0
LINE
  8
┌▓È4
  6
CONTINUOUS
 10
179.838
 20
9811.9035
 11
178.17125
 21
9813.57025
  0
LINE
  8
┌▓È4
  6
CONTINUOUS
 10
178.17125
 20
9813.57025
 11
176.5045
 21
9815.23675
  0
LINE
  8
┌▓È4
  6
CONTINUOUS
 10
176.5045
 20
9815.23675
 11
174.838
 21
9816.9035
  0
LINE
  8
┌▓È4
  6
CONTINUOUS
 10
174.838
 20
9816.9035
 11
173.17125
 21
9818.57025
  0
LINE
  8
┌▓È4
  6
CONTINUOUS
 10
173.17125
 20
9818.57025
 11
173.17125
 21
9821.9035
  0
LINE
  8
┌▓È4
  6
CONTINUOUS
 10
173.17125
 20
9821.9035
 11
173.17125
 21
9823.57025
  0
ENDBLK
  0
BLOCK
  2
*GRP_0059
 70
    65
 10
0.0
 20
0.0
  0
LINE
  8
┌▓È4
  6
CONTINUOUS
 10
173.17125
 20
9656.9035
 11
173.17125
 21
9658.57025
  0
LINE
  8
┌▓È4
  6
CONTINUOUS
 10
173.17125
 20
9658.57025
 11
173.17125
 21
9661.9035
  0
LINE
  8
┌▓È4
  6
CONTINUOUS
 10
173.17125
 20
9661.9035
 11
174.838
 21
9663.57025
  0
LINE
  8
┌▓È4
  6
CONTINUOUS
 10
174.838
 20
9663.57025
 11
176.5045
 21
9665.23675
  0
LINE
  8
┌▓È4
  6
CONTINUOUS
 10
176.5045
 20
9665.23675
 11
178.17125
 21
9666.9035
  0
LINE
  8
┌▓È4
  6
CONTINUOUS
 10
178.17125
 20
9666.9035
 11
179.838
 21
9668.57025
  0
LINE
  8
┌▓È4
  6
CONTINUOUS
 10
179.838
 20
9668.57025
 11
181.5045
 21
9670.23675
  0
LINE
  8
┌▓È4
  6
CONTINUOUS
 10
181.5045
 20
9670.23675
 11
184.838
 21
9670.23675
  0
LINE
  8
┌▓È4
  6
CONTINUOUS
 10
184.838
 20
9670.23675
 11
186.5045
 21
9670.23675
  0
LINE
  8
┌▓È4
  6
CONTINUOUS
 10
186.5045
 20
9670.23675
 11
188.17125
 21
9670.23675
  0
LINE
  8
┌▓È4
  6
CONTINUOUS
 10
188.17125
 20
9670.23675
 11
191.5045
 21
9670.23675
  0
LINE
  8
┌▓È4
  6
CONTINUOUS
 10
191.5045
 20
9670.23675
 11
193.17125
 21
9668.57025
  0
LINE
  8
┌▓È4
  6
CONTINUOUS
 10
193.17125
 20
9668.57025
 11
194.838
 21
9666.9035
  0
LINE
  8
┌▓È4
  6
CONTINUOUS
 10
194.838
 20
9666.9035
 11
196.5045
 21
9665.23675
  0
LINE
  8
┌▓È4
  6
CONTINUOUS
 10
196.5045
 20
9665.23675
 11
198.17125
 21
9663.57025
  0
LINE
  8
┌▓È4
  6
CONTINUOUS
 10
198.17125
 20
9663.57025
 11
199.838
 21
9661.9035
  0
LINE
  8
┌▓È4
  6
CONTINUOUS
 10
199.838
 20
9661.9035
 11
199.838
 21
9658.57025
  0
LINE
  8
┌▓È4
  6
CONTINUOUS
 10
199.838
 20
9658.57025
 11
199.838
 21
9656.9035
  0
LINE
  8
┌▓È4
  6
CONTINUOUS
 10
199.838
 20
9656.9035
 11
199.838
 21
9655.23675
  0
LINE
  8
┌▓È4
  6
CONTINUOUS
 10
199.838
 20
9655.23675
 11
199.838
 21
9651.9035
  0
LINE
  8
┌▓È4
  6
CONTINUOUS
 10
199.838
 20
9651.9035
 11
198.17125
 21
9650.23675
  0
LINE
  8
┌▓È4
  6
CONTINUOUS
 10
198.17125
 20
9650.23675
 11
196.5045
 21
9648.57025
  0
LINE
  8
┌▓È4
  6
CONTINUOUS
 10
196.5045
 20
9648.57025
 11
194.838
 21
9646.9035
  0
LINE
  8
┌▓È4
  6
CONTINUOUS
 10
194.838
 20
9646.9035
 11
193.17125
 21
9645.23675
  0
LINE
  8
┌▓È4
  6
CONTINUOUS
 10
193.17125
 20
9645.23675
 11
191.5045
 21
9643.57025
  0
LINE
  8
┌▓È4
  6
CONTINUOUS
 10
191.5045
 20
9643.57025
 11
188.17125
 21
9643.57025
  0
LINE
  8
┌▓È4
  6
CONTINUOUS
 10
188.17125
 20
9643.57025
 11
186.5045
 21
9643.57025
  0
LINE
  8
┌▓È4
  6
CONTINUOUS
 10
186.5045
 20
9643.57025
 11
184.838
 21
9643.57025
  0
LINE
  8
┌▓È4
  6
CONTINUOUS
 10
184.838
 20
9643.57025
 11
181.5045
 21
9643.57025
  0
LINE
  8
┌▓È4
  6
CONTINUOUS
 10
181.5045
 20
9643.57025
 11
179.838
 21
9645.23675
  0
LINE
  8
┌▓È4
  6
CONTINUOUS
 10
179.838
 20
9645.23675
 11
178.17125
 21
9646.9035
  0
LINE
  8
┌▓È4
  6
CONTINUOUS
 10
178.17125
 20
9646.9035
 11
176.5045
 21
9648.57025
  0
LINE
  8
┌▓È4
  6
CONTINUOUS
 10
176.5045
 20
9648.57025
 11
174.838
 21
9650.23675
  0
LINE
  8
┌▓È4
  6
CONTINUOUS
 10
174.838
 20
9650.23675
 11
173.17125
 21
9651.9035
  0
LINE
  8
┌▓È4
  6
CONTINUOUS
 10
173.17125
 20
9651.9035
 11
173.17125
 21
9655.23675
  0
LINE
  8
┌▓È4
  6
CONTINUOUS
 10
173.17125
 20
9655.23675
 11
173.17125
 21
9656.9035
  0
ENDBLK
  0
BLOCK
  2
*GRP_0060
 70
    65
 10
0.0
 20
0.0
  0
LINE
  8
┌▓È4
  6
CONTINUOUS
 10
173.17125
 20
9990.23675
 11
173.17125
 21
9991.9035
  0
LINE
  8
┌▓È4
  6
CONTINUOUS
 10
173.17125
 20
9991.9035
 11
173.17125
 21
9995.23675
  0
LINE
  8
┌▓È4
  6
CONTINUOUS
 10
173.17125
 20
9995.23675
 11
174.838
 21
9996.9035
  0
LINE
  8
┌▓È4
  6
CONTINUOUS
 10
174.838
 20
9996.9035
 11
176.5045
 21
9998.57025
  0
LINE
  8
┌▓È4
  6
CONTINUOUS
 10
176.5045
 20
9998.57025
 11
178.17125
 21
10000.23675
  0
LINE
  8
┌▓È4
  6
CONTINUOUS
 10
178.17125
 20
10000.23675
 11
179.838
 21
10001.9035
  0
LINE
  8
┌▓È4
  6
CONTINUOUS
 10
179.838
 20
10001.9035
 11
181.5045
 21
10003.57025
  0
LINE
  8
┌▓È4
  6
CONTINUOUS
 10
181.5045
 20
10003.57025
 11
184.838
 21
10003.57025
  0
LINE
  8
┌▓È4
  6
CONTINUOUS
 10
184.838
 20
10003.57025
 11
186.5045
 21
10003.57025
  0
LINE
  8
┌▓È4
  6
CONTINUOUS
 10
186.5045
 20
10003.57025
 11
188.17125
 21
10003.57025
  0
LINE
  8
┌▓È4
  6
CONTINUOUS
 10
188.17125
 20
10003.57025
 11
191.5045
 21
10003.57025
  0
LINE
  8
┌▓È4
  6
CONTINUOUS
 10
191.5045
 20
10003.57025
 11
193.17125
 21
10001.9035
  0
LINE
  8
┌▓È4
  6
CONTINUOUS
 10
193.17125
 20
10001.9035
 11
194.838
 21
10000.23675
  0
LINE
  8
┌▓È4
  6
CONTINUOUS
 10
194.838
 20
10000.23675
 11
196.5045
 21
9998.57025
  0
LINE
  8
┌▓È4
  6
CONTINUOUS
 10
196.5045
 20
9998.57025
 11
198.17125
 21
9996.9035
  0
LINE
  8
┌▓È4
  6
CONTINUOUS
 10
198.17125
 20
9996.9035
 11
199.838
 21
9995.23675
  0
LINE
  8
┌▓È4
  6
CONTINUOUS
 10
199.838
 20
9995.23675
 11
199.838
 21
9991.9035
  0
LINE
  8
┌▓È4
  6
CONTINUOUS
 10
199.838
 20
9991.9035
 11
199.838
 21
9990.23675
  0
LINE
  8
┌▓È4
  6
CONTINUOUS
 10
199.838
 20
9990.23675
 11
199.838
 21
9988.57025
  0
LINE
  8
┌▓È4
  6
CONTINUOUS
 10
199.838
 20
9988.57025
 11
199.838
 21
9985.23675
  0
LINE
  8
┌▓È4
  6
CONTINUOUS
 10
199.838
 20
9985.23675
 11
198.17125
 21
9983.57025
  0
LINE
  8
┌▓È4
  6
CONTINUOUS
 10
198.17125
 20
9983.57025
 11
196.5045
 21
9981.9035
  0
LINE
  8
┌▓È4
  6
CONTINUOUS
 10
196.5045
 20
9981.9035
 11
194.838
 21
9980.23675
  0
LINE
  8
┌▓È4
  6
CONTINUOUS
 10
194.838
 20
9980.23675
 11
193.17125
 21
9978.57025
  0
LINE
  8
┌▓È4
  6
CONTINUOUS
 10
193.17125
 20
9978.57025
 11
191.5045
 21
9976.9035
  0
LINE
  8
┌▓È4
  6
CONTINUOUS
 10
191.5045
 20
9976.9035
 11
188.17125
 21
9976.9035
  0
LINE
  8
┌▓È4
  6
CONTINUOUS
 10
188.17125
 20
9976.9035
 11
186.5045
 21
9976.9035
  0
LINE
  8
┌▓È4
  6
CONTINUOUS
 10
186.5045
 20
9976.9035
 11
184.838
 21
9976.9035
  0
LINE
  8
┌▓È4
  6
CONTINUOUS
 10
184.838
 20
9976.9035
 11
181.5045
 21
9976.9035
  0
LINE
  8
┌▓È4
  6
CONTINUOUS
 10
181.5045
 20
9976.9035
 11
179.838
 21
9978.57025
  0
LINE
  8
┌▓È4
  6
CONTINUOUS
 10
179.838
 20
9978.57025
 11
178.17125
 21
9980.23675
  0
LINE
  8
┌▓È4
  6
CONTINUOUS
 10
178.17125
 20
9980.23675
 11
176.5045
 21
9981.9035
  0
LINE
  8
┌▓È4
  6
CONTINUOUS
 10
176.5045
 20
9981.9035
 11
174.838
 21
9983.57025
  0
LINE
  8
┌▓È4
  6
CONTINUOUS
 10
174.838
 20
9983.57025
 11
173.17125
 21
9985.23675
  0
LINE
  8
┌▓È4
  6
CONTINUOUS
 10
173.17125
 20
9985.23675
 11
173.17125
 21
9988.57025
  0
LINE
  8
┌▓È4
  6
CONTINUOUS
 10
173.17125
 20
9988.57025
 11
173.17125
 21
9990.23675
  0
ENDBLK
  0
BLOCK
  2
*GRP_0061
 70
    65
 10
0.0
 20
0.0
  0
LINE
  8
┌▓È4
  6
CONTINUOUS
 10
173.17125
 20
10790.23675
 11
173.17125
 21
10791.90325
  0
LINE
  8
┌▓È4
  6
CONTINUOUS
 10
173.17125
 20
10791.90325
 11
173.17125
 21
10795.23675
  0
LINE
  8
┌▓È4
  6
CONTINUOUS
 10
173.17125
 20
10795.23675
 11
174.838
 21
10796.90325
  0
LINE
  8
┌▓È4
  6
CONTINUOUS
 10
174.838
 20
10796.90325
 11
176.5045
 21
10798.57
  0
LINE
  8
┌▓È4
  6
CONTINUOUS
 10
176.5045
 20
10798.57
 11
178.17125
 21
10800.23675
  0
LINE
  8
┌▓È4
  6
CONTINUOUS
 10
178.17125
 20
10800.23675
 11
179.838
 21
10801.90325
  0
LINE
  8
┌▓È4
  6
CONTINUOUS
 10
179.838
 20
10801.90325
 11
181.5045
 21
10803.57
  0
LINE
  8
┌▓È4
  6
CONTINUOUS
 10
181.5045
 20
10803.57
 11
184.838
 21
10803.57
  0
LINE
  8
┌▓È4
  6
CONTINUOUS
 10
184.838
 20
10803.57
 11
186.5045
 21
10803.57
  0
LINE
  8
┌▓È4
  6
CONTINUOUS
 10
186.5045
 20
10803.57
 11
188.17125
 21
10803.57
  0
LINE
  8
┌▓È4
  6
CONTINUOUS
 10
188.17125
 20
10803.57
 11
191.5045
 21
10803.57
  0
LINE
  8
┌▓È4
  6
CONTINUOUS
 10
191.5045
 20
10803.57
 11
193.17125
 21
10801.90325
  0
LINE
  8
┌▓È4
  6
CONTINUOUS
 10
193.17125
 20
10801.90325
 11
194.838
 21
10800.23675
  0
LINE
  8
┌▓È4
  6
CONTINUOUS
 10
194.838
 20
10800.23675
 11
196.5045
 21
10798.57
  0
LINE
  8
┌▓È4
  6
CONTINUOUS
 10
196.5045
 20
10798.57
 11
198.17125
 21
10796.90325
  0
LINE
  8
┌▓È4
  6
CONTINUOUS
 10
198.17125
 20
10796.90325
 11
199.838
 21
10795.23675
  0
LINE
  8
┌▓È4
  6
CONTINUOUS
 10
199.838
 20
10795.23675
 11
199.838
 21
10791.90325
  0
LINE
  8
┌▓È4
  6
CONTINUOUS
 10
199.838
 20
10791.90325
 11
199.838
 21
10790.23675
  0
LINE
  8
┌▓È4
  6
CONTINUOUS
 10
199.838
 20
10790.23675
 11
199.838
 21
10788.57
  0
LINE
  8
┌▓È4
  6
CONTINUOUS
 10
199.838
 20
10788.57
 11
199.838
 21
10785.23675
  0
LINE
  8
┌▓È4
  6
CONTINUOUS
 10
199.838
 20
10785.23675
 11
198.17125
 21
10783.57
  0
LINE
  8
┌▓È4
  6
CONTINUOUS
 10
198.17125
 20
10783.57
 11
196.5045
 21
10781.90325
  0
LINE
  8
┌▓È4
  6
CONTINUOUS
 10
196.5045
 20
10781.90325
 11
194.838
 21
10780.23675
  0
LINE
  8
┌▓È4
  6
CONTINUOUS
 10
194.838
 20
10780.23675
 11
193.17125
 21
10778.57
  0
LINE
  8
┌▓È4
  6
CONTINUOUS
 10
193.17125
 20
10778.57
 11
191.5045
 21
10776.90325
  0
LINE
  8
┌▓È4
  6
CONTINUOUS
 10
191.5045
 20
10776.90325
 11
188.17125
 21
10776.90325
  0
LINE
  8
┌▓È4
  6
CONTINUOUS
 10
188.17125
 20
10776.90325
 11
186.5045
 21
10776.90325
  0
LINE
  8
┌▓È4
  6
CONTINUOUS
 10
186.5045
 20
10776.90325
 11
184.838
 21
10776.90325
  0
LINE
  8
┌▓È4
  6
CONTINUOUS
 10
184.838
 20
10776.90325
 11
181.5045
 21
10776.90325
  0
LINE
  8
┌▓È4
  6
CONTINUOUS
 10
181.5045
 20
10776.90325
 11
179.838
 21
10778.57
  0
LINE
  8
┌▓È4
  6
CONTINUOUS
 10
179.838
 20
10778.57
 11
178.17125
 21
10780.23675
  0
LINE
  8
┌▓È4
  6
CONTINUOUS
 10
178.17125
 20
10780.23675
 11
176.5045
 21
10781.90325
  0
LINE
  8
┌▓È4
  6
CONTINUOUS
 10
176.5045
 20
10781.90325
 11
174.838
 21
10783.57
  0
LINE
  8
┌▓È4
  6
CONTINUOUS
 10
174.838
 20
10783.57
 11
173.17125
 21
10785.23675
  0
LINE
  8
┌▓È4
  6
CONTINUOUS
 10
173.17125
 20
10785.23675
 11
173.17125
 21
10788.57
  0
LINE
  8
┌▓È4
  6
CONTINUOUS
 10
173.17125
 20
10788.57
 11
173.17125
 21
10790.23675
  0
ENDBLK
  0
BLOCK
  2
*GRP_0062
 70
    65
 10
0.0
 20
0.0
  0
LINE
  8
┌▓È4
  6
CONTINUOUS
 10
173.17125
 20
10623.57
 11
173.17125
 21
10625.23675
  0
LINE
  8
┌▓È4
  6
CONTINUOUS
 10
173.17125
 20
10625.23675
 11
173.17125
 21
10628.57
  0
LINE
  8
┌▓È4
  6
CONTINUOUS
 10
173.17125
 20
10628.57
 11
174.838
 21
10630.23675
  0
LINE
  8
┌▓È4
  6
CONTINUOUS
 10
174.838
 20
10630.23675
 11
176.5045
 21
10631.90325
  0
LINE
  8
┌▓È4
  6
CONTINUOUS
 10
176.5045
 20
10631.90325
 11
178.17125
 21
10633.57
  0
LINE
  8
┌▓È4
  6
CONTINUOUS
 10
178.17125
 20
10633.57
 11
179.838
 21
10635.23675
  0
LINE
  8
┌▓È4
  6
CONTINUOUS
 10
179.838
 20
10635.23675
 11
181.5045
 21
10636.90325
  0
LINE
  8
┌▓È4
  6
CONTINUOUS
 10
181.5045
 20
10636.90325
 11
184.838
 21
10636.90325
  0
LINE
  8
┌▓È4
  6
CONTINUOUS
 10
184.838
 20
10636.90325
 11
186.5045
 21
10636.90325
  0
LINE
  8
┌▓È4
  6
CONTINUOUS
 10
186.5045
 20
10636.90325
 11
188.17125
 21
10636.90325
  0
LINE
  8
┌▓È4
  6
CONTINUOUS
 10
188.17125
 20
10636.90325
 11
191.5045
 21
10636.90325
  0
LINE
  8
┌▓È4
  6
CONTINUOUS
 10
191.5045
 20
10636.90325
 11
193.17125
 21
10635.23675
  0
LINE
  8
┌▓È4
  6
CONTINUOUS
 10
193.17125
 20
10635.23675
 11
194.838
 21
10633.57
  0
LINE
  8
┌▓È4
  6
CONTINUOUS
 10
194.838
 20
10633.57
 11
196.5045
 21
10631.90325
  0
LINE
  8
┌▓È4
  6
CONTINUOUS
 10
196.5045
 20
10631.90325
 11
198.17125
 21
10630.23675
  0
LINE
  8
┌▓È4
  6
CONTINUOUS
 10
198.17125
 20
10630.23675
 11
199.838
 21
10628.57
  0
LINE
  8
┌▓È4
  6
CONTINUOUS
 10
199.838
 20
10628.57
 11
199.838
 21
10625.23675
  0
LINE
  8
┌▓È4
  6
CONTINUOUS
 10
199.838
 20
10625.23675
 11
199.838
 21
10623.57
  0
LINE
  8
┌▓È4
  6
CONTINUOUS
 10
199.838
 20
10623.57
 11
199.838
 21
10621.90325
  0
LINE
  8
┌▓È4
  6
CONTINUOUS
 10
199.838
 20
10621.90325
 11
199.838
 21
10618.57
  0
LINE
  8
┌▓È4
  6
CONTINUOUS
 10
199.838
 20
10618.57
 11
198.17125
 21
10616.90325
  0
LINE
  8
┌▓È4
  6
CONTINUOUS
 10
198.17125
 20
10616.90325
 11
196.5045
 21
10615.23675
  0
LINE
  8
┌▓È4
  6
CONTINUOUS
 10
196.5045
 20
10615.23675
 11
194.838
 21
10613.57
  0
LINE
  8
┌▓È4
  6
CONTINUOUS
 10
194.838
 20
10613.57
 11
193.17125
 21
10611.90325
  0
LINE
  8
┌▓È4
  6
CONTINUOUS
 10
193.17125
 20
10611.90325
 11
191.5045
 21
10610.23675
  0
LINE
  8
┌▓È4
  6
CONTINUOUS
 10
191.5045
 20
10610.23675
 11
188.17125
 21
10610.23675
  0
LINE
  8
┌▓È4
  6
CONTINUOUS
 10
188.17125
 20
10610.23675
 11
186.5045
 21
10610.23675
  0
LINE
  8
┌▓È4
  6
CONTINUOUS
 10
186.5045
 20
10610.23675
 11
184.838
 21
10610.23675
  0
LINE
  8
┌▓È4
  6
CONTINUOUS
 10
184.838
 20
10610.23675
 11
181.5045
 21
10610.23675
  0
LINE
  8
┌▓È4
  6
CONTINUOUS
 10
181.5045
 20
10610.23675
 11
179.838
 21
10611.90325
  0
LINE
  8
┌▓È4
  6
CONTINUOUS
 10
179.838
 20
10611.90325
 11
178.17125
 21
10613.57
  0
LINE
  8
┌▓È4
  6
CONTINUOUS
 10
178.17125
 20
10613.57
 11
176.5045
 21
10615.23675
  0
LINE
  8
┌▓È4
  6
CONTINUOUS
 10
176.5045
 20
10615.23675
 11
174.838
 21
10616.90325
  0
LINE
  8
┌▓È4
  6
CONTINUOUS
 10
174.838
 20
10616.90325
 11
173.17125
 21
10618.57
  0
LINE
  8
┌▓È4
  6
CONTINUOUS
 10
173.17125
 20
10618.57
 11
173.17125
 21
10621.90325
  0
LINE
  8
┌▓È4
  6
CONTINUOUS
 10
173.17125
 20
10621.90325
 11
173.17125
 21
10623.57
  0
ENDBLK
  0
BLOCK
  2
*GRP_0063
 70
    65
 10
0.0
 20
0.0
  0
LINE
  8
┌▓È4
  6
CONTINUOUS
 10
173.17125
 20
10956.90325
 11
173.17125
 21
10958.57
  0
LINE
  8
┌▓È4
  6
CONTINUOUS
 10
173.17125
 20
10958.57
 11
173.17125
 21
10961.90325
  0
LINE
  8
┌▓È4
  6
CONTINUOUS
 10
173.17125
 20
10961.90325
 11
174.838
 21
10963.57
  0
LINE
  8
┌▓È4
  6
CONTINUOUS
 10
174.838
 20
10963.57
 11
176.5045
 21
10965.23675
  0
LINE
  8
┌▓È4
  6
CONTINUOUS
 10
176.5045
 20
10965.23675
 11
178.17125
 21
10966.90325
  0
LINE
  8
┌▓È4
  6
CONTINUOUS
 10
178.17125
 20
10966.90325
 11
179.838
 21
10968.57
  0
LINE
  8
┌▓È4
  6
CONTINUOUS
 10
179.838
 20
10968.57
 11
181.5045
 21
10970.23675
  0
LINE
  8
┌▓È4
  6
CONTINUOUS
 10
181.5045
 20
10970.23675
 11
184.838
 21
10970.23675
  0
LINE
  8
┌▓È4
  6
CONTINUOUS
 10
184.838
 20
10970.23675
 11
186.5045
 21
10970.23675
  0
LINE
  8
┌▓È4
  6
CONTINUOUS
 10
186.5045
 20
10970.23675
 11
188.17125
 21
10970.23675
  0
LINE
  8
┌▓È4
  6
CONTINUOUS
 10
188.17125
 20
10970.23675
 11
191.5045
 21
10970.23675
  0
LINE
  8
┌▓È4
  6
CONTINUOUS
 10
191.5045
 20
10970.23675
 11
193.17125
 21
10968.57
  0
LINE
  8
┌▓È4
  6
CONTINUOUS
 10
193.17125
 20
10968.57
 11
194.838
 21
10966.90325
  0
LINE
  8
┌▓È4
  6
CONTINUOUS
 10
194.838
 20
10966.90325
 11
196.5045
 21
10965.23675
  0
LINE
  8
┌▓È4
  6
CONTINUOUS
 10
196.5045
 20
10965.23675
 11
198.17125
 21
10963.57
  0
LINE
  8
┌▓È4
  6
CONTINUOUS
 10
198.17125
 20
10963.57
 11
199.838
 21
10961.90325
  0
LINE
  8
┌▓È4
  6
CONTINUOUS
 10
199.838
 20
10961.90325
 11
199.838
 21
10958.57
  0
LINE
  8
┌▓È4
  6
CONTINUOUS
 10
199.838
 20
10958.57
 11
199.838
 21
10956.90325
  0
LINE
  8
┌▓È4
  6
CONTINUOUS
 10
199.838
 20
10956.90325
 11
199.838
 21
10955.23675
  0
LINE
  8
┌▓È4
  6
CONTINUOUS
 10
199.838
 20
10955.23675
 11
199.838
 21
10951.90325
  0
LINE
  8
┌▓È4
  6
CONTINUOUS
 10
199.838
 20
10951.90325
 11
198.17125
 21
10950.23675
  0
LINE
  8
┌▓È4
  6
CONTINUOUS
 10
198.17125
 20
10950.23675
 11
196.5045
 21
10948.57
  0
LINE
  8
┌▓È4
  6
CONTINUOUS
 10
196.5045
 20
10948.57
 11
194.838
 21
10946.90325
  0
LINE
  8
┌▓È4
  6
CONTINUOUS
 10
194.838
 20
10946.90325
 11
193.17125
 21
10945.23675
  0
LINE
  8
┌▓È4
  6
CONTINUOUS
 10
193.17125
 20
10945.23675
 11
191.5045
 21
10943.57
  0
LINE
  8
┌▓È4
  6
CONTINUOUS
 10
191.5045
 20
10943.57
 11
188.17125
 21
10943.57
  0
LINE
  8
┌▓È4
  6
CONTINUOUS
 10
188.17125
 20
10943.57
 11
186.5045
 21
10943.57
  0
LINE
  8
┌▓È4
  6
CONTINUOUS
 10
186.5045
 20
10943.57
 11
184.838
 21
10943.57
  0
LINE
  8
┌▓È4
  6
CONTINUOUS
 10
184.838
 20
10943.57
 11
181.5045
 21
10943.57
  0
LINE
  8
┌▓È4
  6
CONTINUOUS
 10
181.5045
 20
10943.57
 11
179.838
 21
10945.23675
  0
LINE
  8
┌▓È4
  6
CONTINUOUS
 10
179.838
 20
10945.23675
 11
178.17125
 21
10946.90325
  0
LINE
  8
┌▓È4
  6
CONTINUOUS
 10
178.17125
 20
10946.90325
 11
176.5045
 21
10948.57
  0
LINE
  8
┌▓È4
  6
CONTINUOUS
 10
176.5045
 20
10948.57
 11
174.838
 21
10950.23675
  0
LINE
  8
┌▓È4
  6
CONTINUOUS
 10
174.838
 20
10950.23675
 11
173.17125
 21
10951.90325
  0
LINE
  8
┌▓È4
  6
CONTINUOUS
 10
173.17125
 20
10951.90325
 11
173.17125
 21
10955.23675
  0
LINE
  8
┌▓È4
  6
CONTINUOUS
 10
173.17125
 20
10955.23675
 11
173.17125
 21
10956.90325
  0
ENDBLK
  0
BLOCK
  2
*GRP_0064
 70
    65
 10
0.0
 20
0.0
  0
LINE
  8
┌▓È4
  6
CONTINUOUS
 10
173.17125
 20
7340.237
 11
173.17125
 21
7341.9035
  0
LINE
  8
┌▓È4
  6
CONTINUOUS
 10
173.17125
 20
7341.9035
 11
173.17125
 21
7345.237
  0
LINE
  8
┌▓È4
  6
CONTINUOUS
 10
173.17125
 20
7345.237
 11
174.838
 21
7346.9035
  0
LINE
  8
┌▓È4
  6
CONTINUOUS
 10
174.838
 20
7346.9035
 11
176.5045
 21
7348.57025
  0
LINE
  8
┌▓È4
  6
CONTINUOUS
 10
176.5045
 20
7348.57025
 11
178.17125
 21
7350.237
  0
LINE
  8
┌▓È4
  6
CONTINUOUS
 10
178.17125
 20
7350.237
 11
179.838
 21
7351.9035
  0
LINE
  8
┌▓È4
  6
CONTINUOUS
 10
179.838
 20
7351.9035
 11
181.5045
 21
7353.57025
  0
LINE
  8
┌▓È4
  6
CONTINUOUS
 10
181.5045
 20
7353.57025
 11
184.838
 21
7353.57025
  0
LINE
  8
┌▓È4
  6
CONTINUOUS
 10
184.838
 20
7353.57025
 11
186.5045
 21
7353.57025
  0
LINE
  8
┌▓È4
  6
CONTINUOUS
 10
186.5045
 20
7353.57025
 11
188.17125
 21
7353.57025
  0
LINE
  8
┌▓È4
  6
CONTINUOUS
 10
188.17125
 20
7353.57025
 11
191.5045
 21
7353.57025
  0
LINE
  8
┌▓È4
  6
CONTINUOUS
 10
191.5045
 20
7353.57025
 11
193.17125
 21
7351.9035
  0
LINE
  8
┌▓È4
  6
CONTINUOUS
 10
193.17125
 20
7351.9035
 11
194.838
 21
7350.237
  0
LINE
  8
┌▓È4
  6
CONTINUOUS
 10
194.838
 20
7350.237
 11
196.5045
 21
7348.57025
  0
LINE
  8
┌▓È4
  6
CONTINUOUS
 10
196.5045
 20
7348.57025
 11
198.17125
 21
7346.9035
  0
LINE
  8
┌▓È4
  6
CONTINUOUS
 10
198.17125
 20
7346.9035
 11
199.838
 21
7345.237
  0
LINE
  8
┌▓È4
  6
CONTINUOUS
 10
199.838
 20
7345.237
 11
199.838
 21
7341.9035
  0
LINE
  8
┌▓È4
  6
CONTINUOUS
 10
199.838
 20
7341.9035
 11
199.838
 21
7340.237
  0
LINE
  8
┌▓È4
  6
CONTINUOUS
 10
199.838
 20
7340.237
 11
199.838
 21
7338.57025
  0
LINE
  8
┌▓È4
  6
CONTINUOUS
 10
199.838
 20
7338.57025
 11
199.838
 21
7335.237
  0
LINE
  8
┌▓È4
  6
CONTINUOUS
 10
199.838
 20
7335.237
 11
198.17125
 21
7333.57025
  0
LINE
  8
┌▓È4
  6
CONTINUOUS
 10
198.17125
 20
7333.57025
 11
196.5045
 21
7331.9035
  0
LINE
  8
┌▓È4
  6
CONTINUOUS
 10
196.5045
 20
7331.9035
 11
194.838
 21
7330.237
  0
LINE
  8
┌▓È4
  6
CONTINUOUS
 10
194.838
 20
7330.237
 11
193.17125
 21
7328.57025
  0
LINE
  8
┌▓È4
  6
CONTINUOUS
 10
193.17125
 20
7328.57025
 11
191.5045
 21
7326.9035
  0
LINE
  8
┌▓È4
  6
CONTINUOUS
 10
191.5045
 20
7326.9035
 11
188.17125
 21
7326.9035
  0
LINE
  8
┌▓È4
  6
CONTINUOUS
 10
188.17125
 20
7326.9035
 11
186.5045
 21
7326.9035
  0
LINE
  8
┌▓È4
  6
CONTINUOUS
 10
186.5045
 20
7326.9035
 11
184.838
 21
7326.9035
  0
LINE
  8
┌▓È4
  6
CONTINUOUS
 10
184.838
 20
7326.9035
 11
181.5045
 21
7326.9035
  0
LINE
  8
┌▓È4
  6
CONTINUOUS
 10
181.5045
 20
7326.9035
 11
179.838
 21
7328.57025
  0
LINE
  8
┌▓È4
  6
CONTINUOUS
 10
179.838
 20
7328.57025
 11
178.17125
 21
7330.237
  0
LINE
  8
┌▓È4
  6
CONTINUOUS
 10
178.17125
 20
7330.237
 11
176.5045
 21
7331.9035
  0
LINE
  8
┌▓È4
  6
CONTINUOUS
 10
176.5045
 20
7331.9035
 11
174.838
 21
7333.57025
  0
LINE
  8
┌▓È4
  6
CONTINUOUS
 10
174.838
 20
7333.57025
 11
173.17125
 21
7335.237
  0
LINE
  8
┌▓È4
  6
CONTINUOUS
 10
173.17125
 20
7335.237
 11
173.17125
 21
7338.57025
  0
LINE
  8
┌▓È4
  6
CONTINUOUS
 10
173.17125
 20
7338.57025
 11
173.17125
 21
7340.237
  0
ENDBLK
  0
BLOCK
  2
*GRP_0065
 70
    65
 10
0.0
 20
0.0
  0
LINE
  8
┌▓È4
  6
CONTINUOUS
 10
173.17125
 20
7173.57025
 11
173.17125
 21
7175.237
  0
LINE
  8
┌▓È4
  6
CONTINUOUS
 10
173.17125
 20
7175.237
 11
173.17125
 21
7178.57025
  0
LINE
  8
┌▓È4
  6
CONTINUOUS
 10
173.17125
 20
7178.57025
 11
174.838
 21
7180.237
  0
LINE
  8
┌▓È4
  6
CONTINUOUS
 10
174.838
 20
7180.237
 11
176.5045
 21
7181.9035
  0
LINE
  8
┌▓È4
  6
CONTINUOUS
 10
176.5045
 20
7181.9035
 11
178.17125
 21
7183.57025
  0
LINE
  8
┌▓È4
  6
CONTINUOUS
 10
178.17125
 20
7183.57025
 11
179.838
 21
7185.237
  0
LINE
  8
┌▓È4
  6
CONTINUOUS
 10
179.838
 20
7185.237
 11
181.5045
 21
7186.9035
  0
LINE
  8
┌▓È4
  6
CONTINUOUS
 10
181.5045
 20
7186.9035
 11
184.838
 21
7186.9035
  0
LINE
  8
┌▓È4
  6
CONTINUOUS
 10
184.838
 20
7186.9035
 11
186.5045
 21
7186.9035
  0
LINE
  8
┌▓È4
  6
CONTINUOUS
 10
186.5045
 20
7186.9035
 11
188.17125
 21
7186.9035
  0
LINE
  8
┌▓È4
  6
CONTINUOUS
 10
188.17125
 20
7186.9035
 11
191.5045
 21
7186.9035
  0
LINE
  8
┌▓È4
  6
CONTINUOUS
 10
191.5045
 20
7186.9035
 11
193.17125
 21
7185.237
  0
LINE
  8
┌▓È4
  6
CONTINUOUS
 10
193.17125
 20
7185.237
 11
194.838
 21
7183.57025
  0
LINE
  8
┌▓È4
  6
CONTINUOUS
 10
194.838
 20
7183.57025
 11
196.5045
 21
7181.9035
  0
LINE
  8
┌▓È4
  6
CONTINUOUS
 10
196.5045
 20
7181.9035
 11
198.17125
 21
7180.237
  0
LINE
  8
┌▓È4
  6
CONTINUOUS
 10
198.17125
 20
7180.237
 11
199.838
 21
7178.57025
  0
LINE
  8
┌▓È4
  6
CONTINUOUS
 10
199.838
 20
7178.57025
 11
199.838
 21
7175.237
  0
LINE
  8
┌▓È4
  6
CONTINUOUS
 10
199.838
 20
7175.237
 11
199.838
 21
7173.57025
  0
LINE
  8
┌▓È4
  6
CONTINUOUS
 10
199.838
 20
7173.57025
 11
199.838
 21
7171.9035
  0
LINE
  8
┌▓È4
  6
CONTINUOUS
 10
199.838
 20
7171.9035
 11
199.838
 21
7168.57025
  0
LINE
  8
┌▓È4
  6
CONTINUOUS
 10
199.838
 20
7168.57025
 11
198.17125
 21
7166.9035
  0
LINE
  8
┌▓È4
  6
CONTINUOUS
 10
198.17125
 20
7166.9035
 11
196.5045
 21
7165.237
  0
LINE
  8
┌▓È4
  6
CONTINUOUS
 10
196.5045
 20
7165.237
 11
194.838
 21
7163.57025
  0
LINE
  8
┌▓È4
  6
CONTINUOUS
 10
194.838
 20
7163.57025
 11
193.17125
 21
7161.9035
  0
LINE
  8
┌▓È4
  6
CONTINUOUS
 10
193.17125
 20
7161.9035
 11
191.5045
 21
7160.237
  0
LINE
  8
┌▓È4
  6
CONTINUOUS
 10
191.5045
 20
7160.237
 11
188.17125
 21
7160.237
  0
LINE
  8
┌▓È4
  6
CONTINUOUS
 10
188.17125
 20
7160.237
 11
186.5045
 21
7160.237
  0
LINE
  8
┌▓È4
  6
CONTINUOUS
 10
186.5045
 20
7160.237
 11
184.838
 21
7160.237
  0
LINE
  8
┌▓È4
  6
CONTINUOUS
 10
184.838
 20
7160.237
 11
181.5045
 21
7160.237
  0
LINE
  8
┌▓È4
  6
CONTINUOUS
 10
181.5045
 20
7160.237
 11
179.838
 21
7161.9035
  0
LINE
  8
┌▓È4
  6
CONTINUOUS
 10
179.838
 20
7161.9035
 11
178.17125
 21
7163.57025
  0
LINE
  8
┌▓È4
  6
CONTINUOUS
 10
178.17125
 20
7163.57025
 11
176.5045
 21
7165.237
  0
LINE
  8
┌▓È4
  6
CONTINUOUS
 10
176.5045
 20
7165.237
 11
174.838
 21
7166.9035
  0
LINE
  8
┌▓È4
  6
CONTINUOUS
 10
174.838
 20
7166.9035
 11
173.17125
 21
7168.57025
  0
LINE
  8
┌▓È4
  6
CONTINUOUS
 10
173.17125
 20
7168.57025
 11
173.17125
 21
7171.9035
  0
LINE
  8
┌▓È4
  6
CONTINUOUS
 10
173.17125
 20
7171.9035
 11
173.17125
 21
7173.57025
  0
ENDBLK
  0
BLOCK
  2
*GRP_0066
 70
    65
 10
0.0
 20
0.0
  0
LINE
  8
┌▓È4
  6
CONTINUOUS
 10
173.17125
 20
7506.9035
 11
173.17125
 21
7508.57025
  0
LINE
  8
┌▓È4
  6
CONTINUOUS
 10
173.17125
 20
7508.57025
 11
173.17125
 21
7511.9035
  0
LINE
  8
┌▓È4
  6
CONTINUOUS
 10
173.17125
 20
7511.9035
 11
174.838
 21
7513.57025
  0
LINE
  8
┌▓È4
  6
CONTINUOUS
 10
174.838
 20
7513.57025
 11
176.5045
 21
7515.237
  0
LINE
  8
┌▓È4
  6
CONTINUOUS
 10
176.5045
 20
7515.237
 11
178.17125
 21
7516.9035
  0
LINE
  8
┌▓È4
  6
CONTINUOUS
 10
178.17125
 20
7516.9035
 11
179.838
 21
7518.57025
  0
LINE
  8
┌▓È4
  6
CONTINUOUS
 10
179.838
 20
7518.57025
 11
181.5045
 21
7520.237
  0
LINE
  8
┌▓È4
  6
CONTINUOUS
 10
181.5045
 20
7520.237
 11
184.838
 21
7520.237
  0
LINE
  8
┌▓È4
  6
CONTINUOUS
 10
184.838
 20
7520.237
 11
186.5045
 21
7520.237
  0
LINE
  8
┌▓È4
  6
CONTINUOUS
 10
186.5045
 20
7520.237
 11
188.17125
 21
7520.237
  0
LINE
  8
┌▓È4
  6
CONTINUOUS
 10
188.17125
 20
7520.237
 11
191.5045
 21
7520.237
  0
LINE
  8
┌▓È4
  6
CONTINUOUS
 10
191.5045
 20
7520.237
 11
193.17125
 21
7518.57025
  0
LINE
  8
┌▓È4
  6
CONTINUOUS
 10
193.17125
 20
7518.57025
 11
194.838
 21
7516.9035
  0
LINE
  8
┌▓È4
  6
CONTINUOUS
 10
194.838
 20
7516.9035
 11
196.5045
 21
7515.237
  0
LINE
  8
┌▓È4
  6
CONTINUOUS
 10
196.5045
 20
7515.237
 11
198.17125
 21
7513.57025
  0
LINE
  8
┌▓È4
  6
CONTINUOUS
 10
198.17125
 20
7513.57025
 11
199.838
 21
7511.9035
  0
LINE
  8
┌▓È4
  6
CONTINUOUS
 10
199.838
 20
7511.9035
 11
199.838
 21
7508.57025
  0
LINE
  8
┌▓È4
  6
CONTINUOUS
 10
199.838
 20
7508.57025
 11
199.838
 21
7506.9035
  0
LINE
  8
┌▓È4
  6
CONTINUOUS
 10
199.838
 20
7506.9035
 11
199.838
 21
7505.237
  0
LINE
  8
┌▓È4
  6
CONTINUOUS
 10
199.838
 20
7505.237
 11
199.838
 21
7501.9035
  0
LINE
  8
┌▓È4
  6
CONTINUOUS
 10
199.838
 20
7501.9035
 11
198.17125
 21
7500.237
  0
LINE
  8
┌▓È4
  6
CONTINUOUS
 10
198.17125
 20
7500.237
 11
196.5045
 21
7498.57025
  0
LINE
  8
┌▓È4
  6
CONTINUOUS
 10
196.5045
 20
7498.57025
 11
194.838
 21
7496.9035
  0
LINE
  8
┌▓È4
  6
CONTINUOUS
 10
194.838
 20
7496.9035
 11
193.17125
 21
7495.237
  0
LINE
  8
┌▓È4
  6
CONTINUOUS
 10
193.17125
 20
7495.237
 11
191.5045
 21
7493.57025
  0
LINE
  8
┌▓È4
  6
CONTINUOUS
 10
191.5045
 20
7493.57025
 11
188.17125
 21
7493.57025
  0
LINE
  8
┌▓È4
  6
CONTINUOUS
 10
188.17125
 20
7493.57025
 11
186.5045
 21
7493.57025
  0
LINE
  8
┌▓È4
  6
CONTINUOUS
 10
186.5045
 20
7493.57025
 11
184.838
 21
7493.57025
  0
LINE
  8
┌▓È4
  6
CONTINUOUS
 10
184.838
 20
7493.57025
 11
181.5045
 21
7493.57025
  0
LINE
  8
┌▓È4
  6
CONTINUOUS
 10
181.5045
 20
7493.57025
 11
179.838
 21
7495.237
  0
LINE
  8
┌▓È4
  6
CONTINUOUS
 10
179.838
 20
7495.237
 11
178.17125
 21
7496.9035
  0
LINE
  8
┌▓È4
  6
CONTINUOUS
 10
178.17125
 20
7496.9035
 11
176.5045
 21
7498.57025
  0
LINE
  8
┌▓È4
  6
CONTINUOUS
 10
176.5045
 20
7498.57025
 11
174.838
 21
7500.237
  0
LINE
  8
┌▓È4
  6
CONTINUOUS
 10
174.838
 20
7500.237
 11
173.17125
 21
7501.9035
  0
LINE
  8
┌▓È4
  6
CONTINUOUS
 10
173.17125
 20
7501.9035
 11
173.17125
 21
7505.237
  0
LINE
  8
┌▓È4
  6
CONTINUOUS
 10
173.17125
 20
7505.237
 11
173.17125
 21
7506.9035
  0
ENDBLK
  0
BLOCK
  2
*GRP_0067
 70
    65
 10
0.0
 20
0.0
  0
LINE
  8
┌▓È5
 10
-16516.82875
 20
10056.9035
 11
-16677.81625
 21
10013.767
  0
LINE
  8
┌▓È5
 10
-17516.82875
 20
10056.9035
 11
-16516.82875
 21
10056.9035
  0
LINE
  8
┌▓È5
 10
-17355.84125
 20
10100.04
 11
-17516.82875
 21
10056.9035
  0
ENDBLK
  0
BLOCK
  2
*DIM_0068
 70
    65
 10
0.0
 20
0.0
  0
LINE
  8
Éíû@
 10
-21256.47275
 20
5840.23675
 11
-20656.47275
 21
5840.23675
  0
LINE
  8
Éíû@
 10
-21256.47275
 20
14840.23675
 11
-20656.47275
 21
14840.23675
  0
LINE
  8
Éíû@
 10
-20656.47275
 20
5840.23675
 11
-20656.47275
 21
14840.23675
  0
POINT
  8
Éíû@
 10
-20656.47275
 20
5840.23675
  0
POINT
  8
Éíû@
 10
-20656.47275
 20
14840.23675
  0
TEXT
  7
TextStyle03
  8
Éíû@
  6
CONTINUOUS
 10
-20695.0
 20
9930.0
  1
2,700
 40
300.0
 50
90.0
 72
     5
 11
-20695.0
 21
10755.0
  0
ENDBLK
  0
BLOCK
  2
*DIM_0069
 70
    65
 10
0.0
 20
0.0
  0
LINE
  8
Éíû@
 10
-21856.47275
 20
5840.23675
 11
-21256.47275
 21
5840.23675
  0
LINE
  8
Éíû@
 10
-21856.47275
 20
6006.9035
 11
-21256.47275
 21
6006.9035
  0
LINE
  8
Éíû@
 10
-21256.47275
 20
5840.23675
 11
-21256.47275
 21
6006.9035
  0
POINT
  8
Éíû@
 10
-21256.47275
 20
5840.23675
  0
POINT
  8
Éíû@
 10
-21256.47275
 20
6006.9035
  0
TEXT
  7
TextStyle03
  8
Éíû@
  6
CONTINUOUS
 10
-21295.0
 20
5428.125
  1
50
 40
300.0
 50
90.0
 72
     5
 11
-21295.0
 21
5746.875
  0
ENDBLK
  0
BLOCK
  2
*DIM_0070
 70
    65
 10
0.0
 20
0.0
  0
LINE
  8
Éíû@
 10
-21856.47275
 20
6006.9035
 11
-21256.47275
 21
6006.9035
  0
LINE
  8
Éíû@
 10
-21856.47275
 20
8840.23675
 11
-21256.47275
 21
8840.23675
  0
LINE
  8
Éíû@
 10
-21256.47275
 20
6006.9035
 11
-21256.47275
 21
8840.23675
  0
POINT
  8
Éíû@
 10
-21256.47275
 20
6006.9035
  0
POINT
  8
Éíû@
 10
-21256.47275
 20
8840.23675
  0
TEXT
  7
TextStyle03
  8
Éíû@
  6
CONTINUOUS
 10
-21295.0
 20
7181.25
  1
850
 40
300.0
 50
90.0
 72
     5
 11
-21295.0
 21
7668.75
  0
ENDBLK
  0
BLOCK
  2
*DIM_0071
 70
    65
 10
0.0
 20
0.0
  0
LINE
  8
Éíû@
 10
-21856.47275
 20
8840.23675
 11
-21256.47275
 21
8840.23675
  0
LINE
  8
Éíû@
 10
-21856.47275
 20
11840.23675
 11
-21256.47275
 21
11840.23675
  0
LINE
  8
Éíû@
 10
-21256.47275
 20
8840.23675
 11
-21256.47275
 21
11840.23675
  0
POINT
  8
Éíû@
 10
-21256.47275
 20
8840.23675
  0
POINT
  8
Éíû@
 10
-21256.47275
 20
11840.23675
  0
TEXT
  7
TextStyle03
  8
Éíû@
  6
CONTINUOUS
 10
-21295.0
 20
10098.75
  1
900
 40
300.0
 50
90.0
 72
     5
 11
-21295.0
 21
10586.25
  0
ENDBLK
  0
BLOCK
  2
*DIM_0072
 70
    65
 10
0.0
 20
0.0
  0
LINE
  8
Éíû@
 10
-21856.47275
 20
11840.23675
 11
-21256.47275
 21
11840.23675
  0
LINE
  8
Éíû@
 10
-21856.47275
 20
13173.57025
 11
-21256.47275
 21
13173.57025
  0
LINE
  8
Éíû@
 10
-21256.47275
 20
11840.23675
 11
-21256.47275
 21
13173.57025
  0
POINT
  8
Éíû@
 10
-21256.47275
 20
11840.23675
  0
POINT
  8
Éíû@
 10
-21256.47275
 20
13173.57025
  0
TEXT
  7
TextStyle03
  8
Éíû@
  6
CONTINUOUS
 10
-21295.0
 20
12263.75
  1
400
 40
300.0
 50
90.0
 72
     5
 11
-21295.0
 21
12751.25
  0
ENDBLK
  0
BLOCK
  2
*DIM_0073
 70
    65
 10
0.0
 20
0.0
  0
LINE
  8
Éíû@
 10
-21856.47275
 20
13173.57025
 11
-21256.47275
 21
13173.57025
  0
LINE
  8
Éíû@
 10
-21856.47275
 20
14840.23675
 11
-21256.47275
 21
14840.23675
  0
LINE
  8
Éíû@
 10
-21256.47275
 20
13173.57025
 11
-21256.47275
 21
14840.23675
  0
POINT
  8
Éíû@
 10
-21256.47275
 20
13173.57025
  0
POINT
  8
Éíû@
 10
-21256.47275
 20
14840.23675
  0
TEXT
  7
TextStyle03
  8
Éíû@
  6
CONTINUOUS
 10
-21295.0
 20
13763.75
  1
500
 40
300.0
 50
90.0
 72
     5
 11
-21295.0
 21
14251.25
  0
ENDBLK
  0
BLOCK
  2
*GRP_0074
 70
    65
 10
0.0
 20
0.0
  0
POINT
  8
Éíû@
 10
-23465.1235
 20
7506.9035
  0
POLYLINE
  8
Éíû@
 66
     1
  0
VERTEX
  8
Éíû@
 10
-23465.1235
 20
7506.9035
  0
VERTEX
  8
Éíû@
 10
-23177.213
 20
8005.579
  0
VERTEX
  8
Éíû@
 10
-22964.4865
 20
8005.579
  0
SEQEND
  0
ENDBLK
  0
BLOCK
  2
*DIM_0075
 70
    65
 10
0.0
 20
0.0
  0
LINE
  8
Éíû@
 10
-13285.47375
 20
13173.57025
 11
-13285.47375
 21
14840.23675
  0
POINT
  8
Éíû@
 10
-13285.47375
 20
13173.57025
  0
POINT
  8
Éíû@
 10
-13285.47375
 20
14840.23675
  0
TEXT
  7
TextStyle03
  8
Éíû@
  6
CONTINUOUS
 10
-13325.0
 20
13763.75
  1
500
 40
300.0
 50
90.0
 72
     5
 11
-13325.0
 21
14251.25
  0
ENDBLK
  0
BLOCK
  2
*DIM_0076
 70
    65
 10
0.0
 20
0.0
  0
LINE
  8
Éíû@
 10
-13285.47375
 20
8840.23675
 11
-13285.47375
 21
5840.23675
  0
POINT
  8
Éíû@
 10
-13285.47375
 20
8840.23675
  0
POINT
  8
Éíû@
 10
-13285.47375
 20
5840.23675
  0
TEXT
  7
TextStyle03
  8
Éíû@
  6
CONTINUOUS
 10
-13325.0
 20
7098.75
  1
900
 40
300.0
 50
90.0
 72
     5
 11
-13325.0
 21
7586.25
  0
ENDBLK
  0
BLOCK
  2
*DIM_0077
 70
    65
 10
0.0
 20
0.0
  0
LINE
  8
Éíû@
 10
-26251.79025
 20
4573.57025
 11
-26251.79025
 21
3973.57025
  0
LINE
  8
Éíû@
 10
-23251.79025
 20
4573.57025
 11
-23251.79025
 21
3973.57025
  0
LINE
  8
Éíû@
 10
-26251.79025
 20
3973.57025
 11
-23251.79025
 21
3973.57025
  0
POINT
  8
Éíû@
 10
-26251.79025
 20
3973.57025
  0
POINT
  8
Éíû@
 10
-23251.79025
 20
3973.57025
  0
TEXT
  7
TextStyle03
  8
Éíû@
  6
CONTINUOUS
 10
-24996.25
 20
4010.0
  1
900
 40
300.0
 72
     5
 11
-24508.75
 21
4010.0
  0
ENDBLK
  0
BLOCK
  2
*DIM_0078
 70
    65
 10
0.0
 20
0.0
  0
LINE
  8
Éíû@
 10
-26251.79025
 20
5173.57025
 11
-26251.79025
 21
4573.57025
  0
LINE
  8
Éíû@
 10
-24751.79025
 20
5173.57025
 11
-24751.79025
 21
4573.57025
  0
LINE
  8
Éíû@
 10
-26251.79025
 20
4573.57025
 11
-24751.79025
 21
4573.57025
  0
POINT
  8
Éíû@
 10
-26251.79025
 20
4573.57025
  0
POINT
  8
Éíû@
 10
-24751.79025
 20
4573.57025
  0
TEXT
  7
TextStyle03
  8
Éíû@
  6
CONTINUOUS
 10
-25746.25
 20
4610.0
  1
450
 40
300.0
 72
     5
 11
-25258.75
 21
4610.0
  0
ENDBLK
  0
BLOCK
  2
*DIM_0079
 70
    65
 10
0.0
 20
0.0
  0
LINE
  8
Éíû@
 10
-24751.79025
 20
5173.57025
 11
-24751.79025
 21
4573.57025
  0
LINE
  8
Éíû@
 10
-23251.79025
 20
5173.57025
 11
-23251.79025
 21
4573.57025
  0
LINE
  8
Éíû@
 10
-24751.79025
 20
4573.57025
 11
-23251.79025
 21
4573.57025
  0
POINT
  8
Éíû@
 10
-24751.79025
 20
4573.57025
  0
POINT
  8
Éíû@
 10
-23251.79025
 20
4573.57025
  0
TEXT
  7
TextStyle03
  8
Éíû@
  6
CONTINUOUS
 10
-24246.25
 20
4610.0
  1
450
 40
300.0
 72
     5
 11
-23758.75
 21
4610.0
  0
ENDBLK
  0
BLOCK
  2
*DIM_0080
 70
    65
 10
0.0
 20
0.0
  0
LINE
  8
Éíû@
 10
-18536.82875
 20
4573.57025
 11
-18536.82875
 21
3973.57025
  0
LINE
  8
Éíû@
 10
-12536.82875
 20
4573.57025
 11
-12536.82875
 21
3973.57025
  0
LINE
  8
Éíû@
 10
-18536.82875
 20
3973.57025
 11
-12536.82875
 21
3973.57025
  0
POINT
  8
Éíû@
 10
-18536.82875
 20
3973.57025
  0
POINT
  8
Éíû@
 10
-12536.82875
 20
3973.57025
  0
TEXT
  7
TextStyle03
  8
Éíû@
  6
CONTINUOUS
 10
-15950.0
 20
4010.0
  1
1,800
 40
300.0
 72
     5
 11
-15125.0
 21
4010.0
  0
ENDBLK
  0
BLOCK
  2
*DIM_0081
 70
    65
 10
0.0
 20
0.0
  0
LINE
  8
Éíû@
 10
-10870.162
 20
4573.57025
 11
-10870.162
 21
3973.57025
  0
LINE
  8
Éíû@
 10
-4870.162
 20
4573.57025
 11
-4870.162
 21
3973.57025
  0
LINE
  8
Éíû@
 10
-10870.162
 20
3973.57025
 11
-4870.162
 21
3973.57025
  0
POINT
  8
Éíû@
 10
-10870.162
 20
3973.57025
  0
POINT
  8
Éíû@
 10
-4870.162
 20
3973.57025
  0
TEXT
  7
TextStyle03
  8
Éíû@
  6
CONTINUOUS
 10
-8282.5
 20
4010.0
  1
1,800
 40
300.0
 72
     5
 11
-7457.5
 21
4010.0
  0
ENDBLK
  0
BLOCK
  2
*DIM_0082
 70
    65
 10
0.0
 20
0.0
  0
LINE
  8
Éíû@
 10
1463.17125
 20
4573.57025
 11
1463.17125
 21
3973.57025
  0
LINE
  8
Éíû@
 10
-1536.82875
 20
4573.57025
 11
-1536.82875
 21
3973.57025
  0
LINE
  8
Éíû@
 10
1463.17125
 20
3973.57025
 11
-1536.82875
 21
3973.57025
  0
POINT
  8
Éíû@
 10
1463.17125
 20
3973.57025
  0
POINT
  8
Éíû@
 10
-1536.82875
 20
3973.57025
  0
TEXT
  7
TextStyle03
  8
Éíû@
  6
CONTINUOUS
 10
-281.25
 20
4010.0
  1
900
 40
300.0
 72
     5
 11
206.25
 21
4010.0
  0
ENDBLK
  0
BLOCK
  2
*DIM_0083
 70
    65
 10
0.0
 20
0.0
  0
LINE
  8
Éíû@
 10
1463.17125
 20
5173.57025
 11
1463.17125
 21
4573.57025
  0
LINE
  8
Éíû@
 10
-36.82875
 20
5173.57025
 11
-36.82875
 21
4573.57025
  0
LINE
  8
Éíû@
 10
1463.17125
 20
4573.57025
 11
-36.82875
 21
4573.57025
  0
POINT
  8
Éíû@
 10
1463.17125
 20
4573.57025
  0
POINT
  8
Éíû@
 10
-36.82875
 20
4573.57025
  0
TEXT
  7
TextStyle03
  8
Éíû@
  6
CONTINUOUS
 10
468.75
 20
4610.0
  1
450
 40
300.0
 72
     5
 11
956.25
 21
4610.0
  0
ENDBLK
  0
BLOCK
  2
*DIM_0084
 70
    65
 10
0.0
 20
0.0
  0
LINE
  8
Éíû@
 10
-36.82875
 20
5173.57025
 11
-36.82875
 21
4573.57025
  0
LINE
  8
Éíû@
 10
-1536.82875
 20
5173.57025
 11
-1536.82875
 21
4573.57025
  0
LINE
  8
Éíû@
 10
-36.82875
 20
4573.57025
 11
-1536.82875
 21
4573.57025
  0
POINT
  8
Éíû@
 10
-36.82875
 20
4573.57025
  0
POINT
  8
Éíû@
 10
-1536.82875
 20
4573.57025
  0
TEXT
  7
TextStyle03
  8
Éíû@
  6
CONTINUOUS
 10
-1031.25
 20
4610.0
  1
450
 40
300.0
 72
     5
 11
-543.75
 21
4610.0
  0
ENDBLK
  0
BLOCK
  2
*DIM_0085
 70
    65
 10
0.0
 20
0.0
  0
LINE
  8
Éíû@
 10
4796.5045
 20
4573.57025
 11
4796.5045
 21
3973.57025
  0
LINE
  8
Éíû@
 10
10796.5045
 20
4573.57025
 11
10796.5045
 21
3973.57025
  0
LINE
  8
Éíû@
 10
4796.5045
 20
3973.57025
 11
10796.5045
 21
3973.57025
  0
POINT
  8
Éíû@
 10
4796.5045
 20
3973.57025
  0
POINT
  8
Éíû@
 10
10796.5045
 20
3973.57025
  0
TEXT
  7
TextStyle03
  8
Éíû@
  6
CONTINUOUS
 10
7382.5
 20
4010.0
  1
1,800
 40
300.0
 72
     5
 11
8207.5
 21
4010.0
  0
ENDBLK
  0
BLOCK
  2
*DIM_0086
 70
    65
 10
0.0
 20
0.0
  0
LINE
  8
Éíû@
 10
12463.17125
 20
4573.57025
 11
12463.17125
 21
3973.57025
  0
LINE
  8
Éíû@
 10
18463.17125
 20
4573.57025
 11
18463.17125
 21
3973.57025
  0
LINE
  8
Éíû@
 10
12463.17125
 20
3973.57025
 11
18463.17125
 21
3973.57025
  0
POINT
  8
Éíû@
 10
12463.17125
 20
3973.57025
  0
POINT
  8
Éíû@
 10
18463.17125
 20
3973.57025
  0
TEXT
  7
TextStyle03
  8
Éíû@
  6
CONTINUOUS
 10
15050.0
 20
4010.0
  1
1,800
 40
300.0
 72
     5
 11
15875.0
 21
4010.0
  0
ENDBLK
  0
BLOCK
  2
*DIM_0087
 70
    65
 10
0.0
 20
0.0
  0
LINE
  8
Éíû@
 10
12463.17125
 20
5173.57025
 11
12463.17125
 21
4573.57025
  0
LINE
  8
Éíû@
 10
15463.17125
 20
5173.57025
 11
15463.17125
 21
4573.57025
  0
LINE
  8
Éíû@
 10
12463.17125
 20
4573.57025
 11
15463.17125
 21
4573.57025
  0
POINT
  8
Éíû@
 10
12463.17125
 20
4573.57025
  0
POINT
  8
Éíû@
 10
15463.17125
 20
4573.57025
  0
TEXT
  7
TextStyle03
  8
Éíû@
  6
CONTINUOUS
 10
13718.75
 20
4610.0
  1
900
 40
300.0
 72
     5
 11
14206.25
 21
4610.0
  0
ENDBLK
  0
BLOCK
  2
*DIM_0088
 70
    65
 10
0.0
 20
0.0
  0
LINE
  8
Éíû@
 10
15463.17125
 20
5173.57025
 11
15463.17125
 21
4573.57025
  0
LINE
  8
Éíû@
 10
18463.17125
 20
5173.57025
 11
18463.17125
 21
4573.57025
  0
LINE
  8
Éíû@
 10
15463.17125
 20
4573.57025
 11
18463.17125
 21
4573.57025
  0
POINT
  8
Éíû@
 10
15463.17125
 20
4573.57025
  0
POINT
  8
Éíû@
 10
18463.17125
 20
4573.57025
  0
TEXT
  7
TextStyle03
  8
Éíû@
  6
CONTINUOUS
 10
16718.75
 20
4610.0
  1
900
 40
300.0
 72
     5
 11
17206.25
 21
4610.0
  0
ENDBLK
  0
BLOCK
  2
*DIM_0089
 70
    65
 10
0.0
 20
0.0
  0
LINE
  8
Éíû@
 10
4105.843
 20
5840.23675
 11
3505.843
 21
5840.23675
  0
LINE
  8
Éíû@
 10
4105.843
 20
13173.57025
 11
3505.843
 21
13173.57025
  0
LINE
  8
Éíû@
 10
3505.843
 20
5840.23675
 11
3505.843
 21
13173.57025
  0
POINT
  8
Éíû@
 10
3505.843
 20
5840.23675
  0
POINT
  8
Éíû@
 10
3505.843
 20
13173.57025
  0
TEXT
  7
TextStyle03
  8
Éíû@
  6
CONTINUOUS
 10
3467.5
 20
9092.5
  1
2,200
 40
300.0
 50
90.0
 72
     5
 11
3467.5
 21
9917.5
  0
ENDBLK
  0
BLOCK
  2
*DIM_0090
 70
    65
 10
0.0
 20
0.0
  0
LINE
  8
Éíû@
 10
4105.843
 20
14840.23675
 11
3505.843
 21
14840.23675
  0
LINE
  8
Éíû@
 10
3505.843
 20
13173.57025
 11
3505.843
 21
14840.23675
  0
POINT
  8
Éíû@
 10
3505.843
 20
14840.23675
  0
TEXT
  7
TextStyle03
  8
Éíû@
  6
CONTINUOUS
 10
3467.5
 20
13761.25
  1
500
 40
300.0
 50
90.0
 72
     5
 11
3467.5
 21
14248.75
  0
ENDBLK
  0
BLOCK
  2
*DIM_0091
 70
    65
 10
0.0
 20
0.0
  0
LINE
  8
Éíû@
 10
-1811.6965
 20
-2077.269
 11
-1211.6965
 21
-2077.269
  0
LINE
  8
Éíû@
 10
-1811.6965
 20
-5077.269
 11
-1211.6965
 21
-5077.269
  0
LINE
  8
Éíû@
 10
-1211.6965
 20
-2077.269
 11
-1211.6965
 21
-5077.269
  0
POINT
  8
Éíû@
 10
-1211.6965
 20
-2077.269
  0
POINT
  8
Éíû@
 10
-1211.6965
 20
-5077.269
  0
TEXT
  7
TextStyle03
  8
Éíû@
  6
CONTINUOUS
 10
-1250.0
 20
-3821.25
  1
900
 40
300.0
 50
90.0
 72
     5
 11
-1250.0
 21
-3333.75
  0
ENDBLK
  0
BLOCK
  2
*DIM_0092
 70
    65
 10
0.0
 20
0.0
  0
LINE
  8
Éíû@
 10
-2411.6965
 20
-2077.269
 11
-1811.6965
 21
-2077.269
  0
LINE
  8
Éíû@
 10
-2411.6965
 20
-3577.269
 11
-1811.6965
 21
-3577.269
  0
LINE
  8
Éíû@
 10
-1811.6965
 20
-2077.269
 11
-1811.6965
 21
-3577.269
  0
POINT
  8
Éíû@
 10
-1811.6965
 20
-2077.269
  0
POINT
  8
Éíû@
 10
-1811.6965
 20
-3577.269
  0
TEXT
  7
TextStyle03
  8
Éíû@
  6
CONTINUOUS
 10
-1850.0
 20
-3071.25
  1
450
 40
300.0
 50
90.0
 72
     5
 11
-1850.0
 21
-2583.75
  0
ENDBLK
  0
BLOCK
  2
*DIM_0093
 70
    65
 10
0.0
 20
0.0
  0
LINE
  8
Éíû@
 10
-2411.6965
 20
-5077.269
 11
-1811.6965
 21
-5077.269
  0
LINE
  8
Éíû@
 10
-1811.6965
 20
-3577.269
 11
-1811.6965
 21
-5077.269
  0
POINT
  8
Éíû@
 10
-1811.6965
 20
-5077.269
  0
TEXT
  7
TextStyle03
  8
Éíû@
  6
CONTINUOUS
 10
-1850.0
 20
-4571.25
  1
450
 40
300.0
 50
90.0
 72
     5
 11
-1850.0
 21
-4083.75
  0
ENDBLK
  0
ENDSEC
  0
SECTION
  2
ENTITIES
  0
POLYLINE
  8
┌▓È1
  6
CONTINUOUS
 66
     1
 70
     1
  0
VERTEX
  8
┌▓È1
 10
-29700.0
 20
-21000.0
  0
VERTEX
  8
┌▓È1
 10
29700.0
 20
-21000.0
  0
VERTEX
  8
┌▓È1
 10
29700.0
 20
21000.0
  0
VERTEX
  8
┌▓È1
 10
-29700.0
 20
21000.0
  0
SEQEND
  0
LINE
  8
┌▓È1
 10
-26918.457
 20
14840.23675
 11
19129.838
 21
14840.23675
  0
LINE
  8
┌▓È1
 10
-26918.457
 20
5840.23675
 11
19129.838
 21
5840.23675
  0
POLYLINE
  8
┌▓È4
 66
     1
 70
     1
  0
VERTEX
  8
┌▓È4
 10
-23335.1235
 20
9040.23675
  0
VERTEX
  8
┌▓È4
 10
-23385.1235
 20
9040.23675
  0
VERTEX
  8
┌▓È4
 10
-23385.1235
 20
8940.23675
  0
VERTEX
  8
┌▓È4
 10
-23335.1235
 20
8940.23675
  0
SEQEND
  0
POLYLINE
  8
┌▓È4
 66
     1
 70
     1
  0
VERTEX
  8
┌▓È4
 10
-23268.457
 20
9040.23675
  0
VERTEX
  8
┌▓È4
 10
-23318.457
 20
9040.23675
  0
VERTEX
  8
┌▓È4
 10
-23318.457
 20
8940.23675
  0
VERTEX
  8
┌▓È4
 10
-23268.457
 20
8940.23675
  0
SEQEND
  0
POLYLINE
  8
┌▓È4
 66
     1
 70
     1
  0
VERTEX
  8
┌▓È4
 10
-23335.1235
 20
11840.23675
  0
VERTEX
  8
┌▓È4
 10
-23385.1235
 20
11840.23675
  0
VERTEX
  8
┌▓È4
 10
-23385.1235
 20
11740.23675
  0
VERTEX
  8
┌▓È4
 10
-23335.1235
 20
11740.23675
  0
SEQEND
  0
POLYLINE
  8
┌▓È4
 66
     1
 70
     1
  0
VERTEX
  8
┌▓È4
 10
-23268.457
 20
11840.23675
  0
VERTEX
  8
┌▓È4
 10
-23318.457
 20
11840.23675
  0
VERTEX
  8
┌▓È4
 10
-23318.457
 20
11740.23675
  0
VERTEX
  8
┌▓È4
 10
-23268.457
 20
11740.23675
  0
SEQEND
  0
LINE
  8
┌▓È4
 10
-23285.12375
 20
9040.23675
 11
-23285.12375
 21
11740.23675
  0
LINE
  8
┌▓È4
 10
-23301.7905
 20
9040.23675
 11
-23301.7905
 21
11740.23675
  0
LINE
  8
┌▓È4
 10
-23351.79025
 20
9040.23675
 11
-23351.79025
 21
11740.23675
  0
LINE
  8
┌▓È4
 10
-23368.457
 20
9040.23675
 11
-23368.457
 21
11740.23675
  0
INSERT
  2
*GRP_0001
  8
┌▓È4
 10
0.0
 20
0.0
  0
INSERT
  2
*GRP_0002
  8
┌▓È4
 10
0.0
 20
0.0
  0
INSERT
  2
*GRP_0003
  8
┌▓È4
 10
0.0
 20
0.0
  0
INSERT
  2
*GRP_0004
  8
┌▓È4
 10
0.0
 20
0.0
  0
INSERT
  2
*GRP_0005
  8
┌▓È4
 10
0.0
 20
0.0
  0
INSERT
  2
*GRP_0006
  8
┌▓È4
 10
0.0
 20
0.0
  0
INSERT
  2
*GRP_0007
  8
┌▓È4
 10
0.0
 20
0.0
  0
INSERT
  2
*GRP_0008
  8
┌▓È4
 10
0.0
 20
0.0
  0
INSERT
  2
*GRP_0009
  8
┌▓È4
 10
0.0
 20
0.0
  0
INSERT
  2
*GRP_0010
  8
┌▓È4
 10
0.0
 20
0.0
  0
INSERT
  2
*GRP_0011
  8
┌▓È4
 10
0.0
 20
0.0
  0
INSERT
  2
*GRP_0012
  8
┌▓È4
 10
0.0
 20
0.0
  0
INSERT
  2
*GRP_0013
  8
┌▓È4
 10
0.0
 20
0.0
  0
INSERT
  2
*GRP_0014
  8
┌▓È4
 10
0.0
 20
0.0
  0
INSERT
  2
*GRP_0015
  8
┌▓È4
 10
0.0
 20
0.0
  0
INSERT
  2
*GRP_0016
  8
┌▓È4
 10
0.0
 20
0.0
  0
INSERT
  2
*GRP_0017
  8
┌▓È4
 10
0.0
 20
0.0
  0
INSERT
  2
*GRP_0018
  8
┌▓È4
 10
0.0
 20
0.0
  0
INSERT
  2
*GRP_0019
  8
┌▓È4
 10
0.0
 20
0.0
  0
INSERT
  2
*GRP_0020
  8
┌▓È4
 10
0.0
 20
0.0
  0
INSERT
  2
*GRP_0021
  8
┌▓È4
 10
0.0
 20
0.0
  0
INSERT
  2
*GRP_0022
  8
┌▓È4
 10
0.0
 20
0.0
  0
INSERT
  2
*GRP_0023
  8
┌▓È4
 10
0.0
 20
0.0
  0
INSERT
  2
*GRP_0024
  8
┌▓È4
 10
0.0
 20
0.0
  0
INSERT
  2
*GRP_0025
  8
┌▓È4
 10
0.0
 20
0.0
  0
INSERT
  2
*GRP_0026
  8
┌▓È4
 10
0.0
 20
0.0
  0
INSERT
  2
*GRP_0027
  8
┌▓È4
 10
0.0
 20
0.0
  0
INSERT
  2
*GRP_0028
  8
┌▓È4
 10
0.0
 20
0.0
  0
INSERT
  2
*GRP_0029
  8
┌▓È4
 10
0.0
 20
0.0
  0
INSERT
  2
*GRP_0030
  8
┌▓È4
 10
0.0
 20
0.0
  0
INSERT
  2
*GRP_0031
  8
┌▓È4
 10
0.0
 20
0.0
  0
INSERT
  2
*GRP_0032
  8
┌▓È4
 10
0.0
 20
0.0
  0
INSERT
  2
*GRP_0033
  8
┌▓È4
 10
0.0
 20
0.0
  0
INSERT
  2
*GRP_0034
  8
┌▓È4
 10
0.0
 20
0.0
  0
INSERT
  2
*GRP_0035
  8
┌▓È4
 10
0.0
 20
0.0
  0
INSERT
  2
*GRP_0036
  8
┌▓È4
 10
0.0
 20
0.0
  0
INSERT
  2
*GRP_0037
  8
┌▓È4
 10
0.0
 20
0.0
  0
INSERT
  2
*GRP_0038
  8
┌▓È4
 10
0.0
 20
0.0
  0
INSERT
  2
*GRP_0039
  8
┌▓È4
 10
0.0
 20
0.0
  0
INSERT
  2
*GRP_0040
  8
┌▓È4
 10
0.0
 20
0.0
  0
INSERT
  2
*GRP_0041
  8
┌▓È4
 10
0.0
 20
0.0
  0
INSERT
  2
*GRP_0042
  8
┌▓È4
 10
0.0
 20
0.0
  0
INSERT
  2
*GRP_0043
  8
┌▓È4
 10
0.0
 20
0.0
  0
INSERT
  2
*GRP_0044
  8
┌▓È4
 10
0.0
 20
0.0
  0
INSERT
  2
*GRP_0045
  8
┌▓È4
 10
0.0
 20
0.0
  0
INSERT
  2
*GRP_0046
  8
┌▓È4
 10
0.0
 20
0.0
  0
INSERT
  2
*GRP_0047
  8
┌▓È4
 10
0.0
 20
0.0
  0
INSERT
  2
*GRP_0048
  8
┌▓È4
 10
0.0
 20
0.0
  0
INSERT
  2
*GRP_0049
  8
┌▓È4
 10
0.0
 20
0.0
  0
INSERT
  2
*GRP_0050
  8
┌▓È4
 10
0.0
 20
0.0
  0
INSERT
  2
*GRP_0051
  8
┌▓È4
 10
0.0
 20
0.0
  0
INSERT
  2
*GRP_0052
  8
┌▓È4
 10
0.0
 20
0.0
  0
INSERT
  2
*GRP_0053
  8
┌▓È4
 10
0.0
 20
0.0
  0
INSERT
  2
*GRP_0054
  8
┌▓È4
 10
0.0
 20
0.0
  0
INSERT
  2
*GRP_0055
  8
┌▓È4
 10
0.0
 20
0.0
  0
INSERT
  2
*GRP_0056
  8
┌▓È4
 10
0.0
 20
0.0
  0
INSERT
  2
*GRP_0057
  8
┌▓È4
 10
0.0
 20
0.0
  0
INSERT
  2
*GRP_0058
  8
┌▓È4
 10
0.0
 20
0.0
  0
INSERT
  2
*GRP_0059
  8
┌▓È4
 10
0.0
 20
0.0
  0
INSERT
  2
*GRP_0060
  8
┌▓È4
 10
0.0
 20
0.0
  0
INSERT
  2
*GRP_0061
  8
┌▓È4
 10
0.0
 20
0.0
  0
INSERT
  2
*GRP_0062
  8
┌▓È4
 10
0.0
 20
0.0
  0
INSERT
  2
*GRP_0063
  8
┌▓È4
 10
0.0
 20
0.0
  0
INSERT
  2
*GRP_0064
  8
┌▓È4
 10
0.0
 20
0.0
  0
INSERT
  2
*GRP_0065
  8
┌▓È4
 10
0.0
 20
0.0
  0
INSERT
  2
*GRP_0066
  8
┌▓È4
 10
0.0
 20
0.0
  0
POLYLINE
  8
┌▓È4
 66
     1
 70
     1
  0
VERTEX
  8
┌▓È4
 10
-10690.162
 20
-4943.93575
  0
VERTEX
  8
┌▓È4
 10
-10790.162
 20
-4943.93575
  0
VERTEX
  8
┌▓È4
 10
-10790.162
 20
-4993.93575
  0
VERTEX
  8
┌▓È4
 10
-10690.162
 20
-4993.93575
  0
SEQEND
  0
LINE
  8
┌▓È4
 10
-9350.162
 20
-4808.2655
 11
-9350.162
 21
-5173.46125
  0
POLYLINE
  8
┌▓È4
 66
     1
 70
     1
  0
VERTEX
  8
┌▓È4
 10
-9300.162
 20
-5010.60225
  0
VERTEX
  8
┌▓È4
 10
-9400.162
 20
-5010.60225
  0
VERTEX
  8
┌▓È4
 10
-9400.162
 20
-5060.60225
  0
VERTEX
  8
┌▓È4
 10
-9300.162
 20
-5060.60225
  0
SEQEND
  0
POLYLINE
  8
┌▓È4
 66
     1
 70
     1
  0
VERTEX
  8
┌▓È4
 10
-9300.162
 20
-4943.93575
  0
VERTEX
  8
┌▓È4
 10
-9400.162
 20
-4943.93575
  0
VERTEX
  8
┌▓È4
 10
-9400.162
 20
-4993.93575
  0
VERTEX
  8
┌▓È4
 10
-9300.162
 20
-4993.93575
  0
SEQEND
  0
POLYLINE
  8
┌▓È4
 66
     1
 70
     1
  0
VERTEX
  8
┌▓È4
 10
-7910.162
 20
-5010.60225
  0
VERTEX
  8
┌▓È4
 10
-8010.162
 20
-5010.60225
  0
VERTEX
  8
┌▓È4
 10
-8010.162
 20
-5060.60225
  0
VERTEX
  8
┌▓È4
 10
-7910.162
 20
-5060.60225
  0
SEQEND
  0
LINE
  8
┌▓È4
 10
-8010.162
 20
-5043.9355
 11
-9300.162
 21
-5043.9355
  0
LINE
  8
┌▓È4
 10
-8010.162
 20
-5027.26875
 11
-9300.162
 21
-5027.26875
  0
LINE
  8
┌▓È4
 10
-9400.162
 20
-4977.269
 11
-10690.162
 21
-4977.269
  0
LINE
  8
┌▓È4
 10
-9400.162
 20
-4960.60225
 11
-10690.162
 21
-4960.60225
  0
LINE
  8
┌▓È5
 10
-26251.79025
 20
13173.57025
 11
-23251.79025
 21
13173.57025
  0
LINE
  8
┌▓È5
 10
-26251.79025
 20
13173.57025
 11
-26251.79025
 21
5940.23675
  0
LINE
  8
┌▓È5
 10
-23365.1235
 20
5940.23675
 11
-23365.1235
 21
5840.23675
  0
LINE
  8
┌▓È5
 10
-23285.1235
 20
5940.23675
 11
-23285.1235
 21
5840.23675
  0
LINE
  8
┌▓È5
 10
-23331.79025
 20
11940.23675
 11
-23331.79025
 21
13073.57025
  0
LINE
  8
┌▓È5
 10
-23251.79025
 20
13173.57025
 11
-23251.79025
 21
11840.23675
  0
LINE
  8
┌▓È5
 10
-23251.79025
 20
8940.23675
 11
-23251.79025
 21
5940.23675
  0
LINE
  8
┌▓È5
 10
-23401.79025
 20
11840.23675
 11
-23401.79025
 21
11940.23675
  0
LINE
  8
┌▓È5
 10
-23401.79025
 20
8940.23675
 11
-23401.79025
 21
8840.23675
  0
LINE
  8
┌▓È5
 10
-23331.79025
 20
8840.23675
 11
-23331.79025
 21
6006.9035
  0
LINE
  8
┌▓È5
 10
-26251.79025
 20
11940.23675
 11
-24791.79025
 21
11940.23675
  0
LINE
  8
┌▓È5
 10
-24711.79025
 20
11940.23675
 11
-23251.79025
 21
11940.23675
  0
LINE
  8
┌▓È5
 10
-26251.79025
 20
11840.23675
 11
-24791.79025
 21
11840.23675
  0
LINE
  8
┌▓È5
 10
-24711.79025
 20
11840.23675
 11
-23251.79025
 21
11840.23675
  0
LINE
  8
┌▓È5
 10
-24711.79025
 20
8840.23675
 11
-23251.79025
 21
8840.23675
  0
LINE
  8
┌▓È5
 10
-24711.79025
 20
8940.23675
 11
-23251.79025
 21
8940.23675
  0
LINE
  8
┌▓È5
  6
CONTINUOUS
 10
-23365.1235
 20
7423.57025
 11
-23365.1235
 21
7353.57025
  0
LINE
  8
┌▓È5
  6
CONTINUOUS
 10
-23435.1235
 20
9520.23675
 11
-23435.1235
 21
9450.23675
  0
LINE
  8
┌▓È5
  6
CONTINUOUS
 10
-23435.1235
 20
10100.23675
 11
-23435.1235
 21
10030.23675
  0
LINE
  8
┌▓È5
  6
CONTINUOUS
 10
-23435.1235
 20
10680.23675
 11
-23435.1235
 21
10610.23675
  0
LINE
  8
┌▓È5
  6
CONTINUOUS
 10
-23435.1235
 20
11260.23675
 11
-23435.1235
 21
11190.23675
  0
LINE
  8
┌▓È5
 10
-18536.82875
 20
5840.23675
 11
-18536.82875
 21
14840.23675
  0
LINE
  8
┌▓È5
 10
-18456.82875
 20
5840.23675
 11
-18456.82875
 21
14840.23675
  0
LINE
  8
┌▓È5
 10
-12616.82875
 20
5840.23675
 11
-12616.82875
 21
14840.23675
  0
LINE
  8
┌▓È5
 10
-12536.82875
 20
5840.23675
 11
-12536.82875
 21
14840.23675
  0
LINE
  8
┌▓È5
 10
-15576.82875
 20
11940.23675
 11
-18456.82875
 21
11940.23675
  0
LINE
  8
┌▓È5
 10
-15576.82875
 20
11840.23675
 11
-18456.82875
 21
11840.23675
  0
LINE
  8
┌▓È5
 10
-15576.82875
 20
8840.23675
 11
-18456.82875
 21
8840.23675
  0
LINE
  8
┌▓È5
 10
-15576.82875
 20
8940.23675
 11
-18456.82875
 21
8940.23675
  0
LINE
  8
┌▓È5
 10
-15496.82875
 20
8840.23675
 11
-12616.82875
 21
8840.23675
  0
LINE
  8
┌▓È5
 10
-15496.82875
 20
8940.23675
 11
-12616.82875
 21
8940.23675
  0
LINE
  8
┌▓È5
 10
-18456.82875
 20
13173.57025
 11
-12616.82875
 21
13173.57025
  0
LINE
  8
┌▓È5
 10
-18456.82875
 20
13073.57025
 11
-12616.82875
 21
13073.57025
  0
LINE
  8
┌▓È5
 10
-15576.82875
 20
13073.57025
 11
-15576.82875
 21
5840.23675
  0
LINE
  8
┌▓È5
 10
-15496.82875
 20
13073.57025
 11
-15496.82875
 21
5840.23675
  0
LINE
  8
┌▓È5
 10
-18456.82875
 20
6006.9035
 11
-15576.82875
 21
6006.9035
  0
LINE
  8
┌▓È5
 10
-18456.82875
 20
5940.23675
 11
-15576.82875
 21
5940.23675
  0
LINE
  8
┌▓È5
 10
-24791.79025
 20
8940.23675
 11
-26171.79025
 21
8940.23675
  0
LINE
  8
┌▓È5
 10
-24791.79025
 20
8840.23675
 11
-26171.79025
 21
8840.23675
  0
LINE
  8
┌▓È5
 10
-17016.82875
 20
11940.23675
 11
-17016.82875
 21
13073.57025
  0
LINE
  8
┌▓È5
 10
-17066.82875
 20
8940.23675
 11
-17066.82875
 21
11840.23675
  0
LINE
  8
┌▓È5
 10
-16966.82875
 20
11740.23675
 11
-15676.82875
 21
11740.23675
  0
LINE
  8
┌▓È5
 10
-15676.82875
 20
11740.23675
 11
-15676.82875
 21
9040.23675
  0
LINE
  8
┌▓È5
 10
-18356.82875
 20
9040.23675
 11
-18356.82875
 21
11740.23675
  0
LINE
  8
┌▓È5
 10
-18356.82875
 20
11740.23675
 11
-17066.82875
 21
11740.23675
  0
LINE
  8
┌▓È5
 10
-16966.82875
 20
11740.23675
 11
-16966.82875
 21
9040.23675
  0
LINE
  8
┌▓È5
 10
-15676.82875
 20
9040.23675
 11
-16966.82875
 21
9040.23675
  0
LINE
  8
┌▓È5
 10
-17066.82875
 20
9040.23675
 11
-18356.82875
 21
9040.23675
  0
INSERT
  2
*GRP_0067
  8
┌▓È5
 10
0.0
 20
0.0
  0
LINE
  8
┌▓È5
 10
-17016.82875
 20
8840.23675
 11
-17016.82875
 21
6006.9035
  0
CIRCLE
  8
┌▓È5
 10
-16800.162
 20
12256.9035
 40
50.0
  0
CIRCLE
  8
┌▓È5
 10
-17233.4955
 20
12256.9035
 40
50.0
  0
CIRCLE
  8
┌▓È5
 10
-17233.4955
 20
8523.57
 40
50.0
  0
CIRCLE
  8
┌▓È5
 10
-16800.162
 20
8523.57
 40
50.0
  0
LINE
  8
┌▓È5
 10
-24791.79025
 20
13073.57025
 11
-24791.79025
 21
5840.23675
  0
LINE
  8
┌▓È5
 10
-24711.79025
 20
13073.57025
 11
-24711.79025
 21
5840.23675
  0
LINE
  8
┌▓È5
 10
-24711.79025
 20
6006.9035
 11
-23251.79025
 21
6006.9035
  0
LINE
  8
┌▓È5
 10
-26251.79025
 20
5940.23675
 11
-24791.79025
 21
5940.23675
  0
LINE
  8
┌▓È5
 10
-24711.79025
 20
5940.23675
 11
-23251.79025
 21
5940.23675
  0
LINE
  8
┌▓È5
 10
-26171.79025
 20
11940.23675
 11
-26171.79025
 21
13173.57025
  0
LINE
  8
┌▓È5
 10
-23251.79025
 20
13073.57025
 11
-26171.79025
 21
13073.57025
  0
LINE
  8
┌▓È5
 10
-24791.79025
 20
6006.9035
 11
-26171.79025
 21
6006.9035
  0
LINE
  8
┌▓È5
 10
-26171.79025
 20
11840.23675
 11
-26171.79025
 21
5940.23675
  0
LINE
  8
┌▓È5
 10
-26058.457
 20
5940.23675
 11
-26058.457
 21
5840.23675
  0
LINE
  8
┌▓È5
 10
-26138.457
 20
5940.23675
 11
-26138.457
 21
5840.23675
  0
LINE
  8
┌▓È5
  6
CONTINUOUS
 10
-26138.457
 20
7423.57025
 11
-26138.457
 21
7353.57025
  0
LINE
  8
┌▓È5
  6
CONTINUOUS
 10
-26138.457
 20
9906.9035
 11
-26138.457
 21
9836.9035
  0
LINE
  8
┌▓È5
  6
CONTINUOUS
 10
-26138.457
 20
10873.57
 11
-26138.457
 21
10803.57
  0
LINE
  8
┌▓È5
  6
CONTINUOUS
 10
-24695.1235
 20
9450.23675
 11
-24695.1235
 21
9520.23675
  0
LINE
  8
┌▓È5
  6
CONTINUOUS
 10
-23435.1235
 20
9520.23675
 11
-24695.1235
 21
9520.23675
  0
LINE
  8
┌▓È5
  6
CONTINUOUS
 10
-24695.1235
 20
9450.23675
 11
-23435.1235
 21
9450.23675
  0
LINE
  8
┌▓È5
  6
CONTINUOUS
 10
-24695.1235
 20
10030.23675
 11
-24695.1235
 21
10100.23675
  0
LINE
  8
┌▓È5
  6
CONTINUOUS
 10
-23435.1235
 20
10100.23675
 11
-24695.1235
 21
10100.23675
  0
LINE
  8
┌▓È5
  6
CONTINUOUS
 10
-24695.1235
 20
10030.23675
 11
-23435.1235
 21
10030.23675
  0
LINE
  8
┌▓È5
  6
CONTINUOUS
 10
-24695.1235
 20
10610.23675
 11
-24695.1235
 21
10680.23675
  0
LINE
  8
┌▓È5
  6
CONTINUOUS
 10
-23435.1235
 20
10680.23675
 11
-24695.1235
 21
10680.23675
  0
LINE
  8
┌▓È5
  6
CONTINUOUS
 10
-24695.1235
 20
10610.23675
 11
-23435.1235
 21
10610.23675
  0
LINE
  8
┌▓È5
  6
CONTINUOUS
 10
-24695.1235
 20
11190.23675
 11
-24695.1235
 21
11260.23675
  0
LINE
  8
┌▓È5
  6
CONTINUOUS
 10
-23435.1235
 20
11260.23675
 11
-24695.1235
 21
11260.23675
  0
LINE
  8
┌▓È5
  6
CONTINUOUS
 10
-24695.1235
 20
11190.23675
 11
-23435.1235
 21
11190.23675
  0
LINE
  8
┌▓È5
  6
CONTINUOUS
 10
-24808.457
 20
9836.9035
 11
-24808.457
 21
9906.9035
  0
LINE
  8
┌▓È5
  6
CONTINUOUS
 10
-26138.457
 20
9906.9035
 11
-24808.457
 21
9906.9035
  0
LINE
  8
┌▓È5
  6
CONTINUOUS
 10
-24808.457
 20
9836.9035
 11
-26138.457
 21
9836.9035
  0
LINE
  8
┌▓È5
  6
CONTINUOUS
 10
-24808.457
 20
10803.57
 11
-24808.457
 21
10873.57
  0
LINE
  8
┌▓È5
  6
CONTINUOUS
 10
-26138.457
 20
10873.57
 11
-24808.457
 21
10873.57
  0
LINE
  8
┌▓È5
  6
CONTINUOUS
 10
-24808.457
 20
10803.57
 11
-26138.457
 21
10803.57
  0
LINE
  8
┌▓È5
  6
CONTINUOUS
 10
-24695.1235
 20
7353.57025
 11
-24695.1235
 21
7423.57025
  0
LINE
  8
┌▓È5
  6
CONTINUOUS
 10
-23365.1235
 20
7423.57025
 11
-24695.1235
 21
7423.57025
  0
LINE
  8
┌▓È5
  6
CONTINUOUS
 10
-24695.1235
 20
7353.57025
 11
-23365.1235
 21
7353.57025
  0
LINE
  8
┌▓È5
  6
CONTINUOUS
 10
-24808.457
 20
7353.57025
 11
-24808.457
 21
7423.57025
  0
LINE
  8
┌▓È5
  6
CONTINUOUS
 10
-26138.457
 20
7423.57025
 11
-24808.457
 21
7423.57025
  0
LINE
  8
┌▓È5
  6
CONTINUOUS
 10
-24808.457
 20
7353.57025
 11
-26138.457
 21
7353.57025
  0
LINE
  8
┌▓È5
 10
-10870.162
 20
5840.23675
 11
-10870.162
 21
14840.23675
  0
LINE
  8
┌▓È5
 10
-10790.162
 20
5840.23675
 11
-10790.162
 21
14840.23675
  0
LINE
  8
┌▓È5
 10
-4950.162
 20
5840.23675
 11
-4950.162
 21
14840.23675
  0
LINE
  8
┌▓È5
 10
-4870.162
 20
5840.23675
 11
-4870.162
 21
14840.23675
  0
LINE
  8
┌▓È5
 10
-7910.162
 20
11940.23675
 11
-10790.162
 21
11940.23675
  0
LINE
  8
┌▓È5
 10
-7910.162
 20
11840.23675
 11
-10790.162
 21
11840.23675
  0
LINE
  8
┌▓È5
 10
-7910.162
 20
8840.23675
 11
-10790.162
 21
8840.23675
  0
LINE
  8
┌▓È5
 10
-7910.162
 20
8940.23675
 11
-10790.162
 21
8940.23675
  0
LINE
  8
┌▓È5
 10
-7830.162
 20
8840.23675
 11
-4950.162
 21
8840.23675
  0
LINE
  8
┌▓È5
 10
-7830.162
 20
8940.23675
 11
-4950.162
 21
8940.23675
  0
LINE
  8
┌▓È5
 10
-10790.162
 20
13173.57025
 11
-4950.162
 21
13173.57025
  0
LINE
  8
┌▓È5
 10
-10790.162
 20
13073.57025
 11
-4950.162
 21
13073.57025
  0
LINE
  8
┌▓È5
 10
-7910.162
 20
13073.57025
 11
-7910.162
 21
5840.23675
  0
LINE
  8
┌▓È5
 10
-7830.162
 20
13073.57025
 11
-7830.162
 21
5840.23675
  0
LINE
  8
┌▓È5
 10
-10790.162
 20
6006.9035
 11
-7910.162
 21
6006.9035
  0
LINE
  8
┌▓È5
 10
-10790.162
 20
5940.23675
 11
-7910.162
 21
5940.23675
  0
LINE
  8
┌▓È5
  6
CONTINUOUS
 10
-7926.82875
 20
9520.23675
 11
-7926.82875
 21
9450.23675
  0
LINE
  8
┌▓È5
  6
CONTINUOUS
 10
-7926.82875
 20
10100.23675
 11
-7926.82875
 21
10030.23675
  0
LINE
  8
┌▓È5
  6
CONTINUOUS
 10
-7926.82875
 20
10680.23675
 11
-7926.82875
 21
10610.23675
  0
LINE
  8
┌▓È5
  6
CONTINUOUS
 10
-7926.82875
 20
11260.23675
 11
-7926.82875
 21
11190.23675
  0
LINE
  8
┌▓È5
  6
CONTINUOUS
 10
-7926.82875
 20
7423.57025
 11
-7926.82875
 21
7353.57025
  0
LINE
  8
┌▓È5
  6
CONTINUOUS
 10
-10773.49525
 20
9450.23675
 11
-10773.49525
 21
9520.23675
  0
LINE
  8
┌▓È5
  6
CONTINUOUS
 10
-10773.49525
 20
10030.23675
 11
-10773.49525
 21
10100.23675
  0
LINE
  8
┌▓È5
  6
CONTINUOUS
 10
-10773.49525
 20
10610.23675
 11
-10773.49525
 21
10680.23675
  0
LINE
  8
┌▓È5
  6
CONTINUOUS
 10
-10773.49525
 20
11190.23675
 11
-10773.49525
 21
11260.23675
  0
LINE
  8
┌▓È5
  6
CONTINUOUS
 10
-7926.82875
 20
9520.23675
 11
-10773.49525
 21
9520.23675
  0
LINE
  8
┌▓È5
  6
CONTINUOUS
 10
-10773.49525
 20
9450.23675
 11
-7926.82875
 21
9450.23675
  0
LINE
  8
┌▓È5
  6
CONTINUOUS
 10
-7926.82875
 20
10100.23675
 11
-10773.49525
 21
10100.23675
  0
LINE
  8
┌▓È5
  6
CONTINUOUS
 10
-10773.49525
 20
10030.23675
 11
-7926.82875
 21
10030.23675
  0
LINE
  8
┌▓È5
  6
CONTINUOUS
 10
-7926.82875
 20
10680.23675
 11
-10773.49525
 21
10680.23675
  0
LINE
  8
┌▓È5
  6
CONTINUOUS
 10
-10773.49525
 20
10610.23675
 11
-7926.82875
 21
10610.23675
  0
LINE
  8
┌▓È5
  6
CONTINUOUS
 10
-7926.82875
 20
11260.23675
 11
-10773.49525
 21
11260.23675
  0
LINE
  8
┌▓È5
  6
CONTINUOUS
 10
-10773.49525
 20
11190.23675
 11
-7926.82875
 21
11190.23675
  0
LINE
  8
┌▓È5
  6
CONTINUOUS
 10
-10773.49525
 20
7353.57025
 11
-10773.49525
 21
7423.57025
  0
LINE
  8
┌▓È5
  6
CONTINUOUS
 10
-7926.82875
 20
7423.57025
 11
-10773.49525
 21
7423.57025
  0
LINE
  8
┌▓È5
  6
CONTINUOUS
 10
-10773.49525
 20
7353.57025
 11
-7926.82875
 21
7353.57025
  0
LINE
  8
┌▓È5
 10
1463.17125
 20
13173.57025
 11
-1536.82875
 21
13173.57025
  0
LINE
  8
┌▓È5
 10
1463.17125
 20
13173.57025
 11
1463.17125
 21
5940.23675
  0
LINE
  8
┌▓È5
 10
1463.17125
 20
11940.23675
 11
3.17125
 21
11940.23675
  0
LINE
  8
┌▓È5
 10
1463.17125
 20
11840.23675
 11
3.17125
 21
11840.23675
  0
LINE
  8
┌▓È5
 10
-76.82875
 20
8940.23675
 11
-1536.82875
 21
8940.23675
  0
LINE
  8
┌▓È5
 10
3.17125
 20
8940.23675
 11
1383.17125
 21
8940.23675
  0
LINE
  8
┌▓È5
 10
3.17125
 20
8840.23675
 11
1383.17125
 21
8840.23675
  0
LINE
  8
┌▓È5
 10
-1536.82875
 20
13173.57025
 11
-1536.82875
 21
8840.23675
  0
LINE
  8
┌▓È5
 10
-76.82875
 20
8840.23675
 11
-1536.82875
 21
8840.23675
  0
LINE
  8
┌▓È5
 10
-76.82875
 20
13073.57025
 11
-76.82875
 21
5840.23675
  0
LINE
  8
┌▓È5
 10
3.17125
 20
13073.57025
 11
3.17125
 21
5840.23675
  0
LINE
  8
┌▓È5
 10
1463.17125
 20
5940.23675
 11
3.17125
 21
5940.23675
  0
LINE
  8
┌▓È5
 10
1383.17125
 20
11940.23675
 11
1383.17125
 21
13173.57025
  0
LINE
  8
┌▓È5
 10
-1536.82875
 20
13073.57025
 11
1383.17125
 21
13073.57025
  0
LINE
  8
┌▓È5
 10
3.17125
 20
6006.9035
 11
1383.17125
 21
6006.9035
  0
LINE
  8
┌▓È5
 10
1383.17125
 20
11840.23675
 11
1383.17125
 21
5940.23675
  0
LINE
  8
┌▓È5
 10
1269.838
 20
5940.23675
 11
1269.838
 21
5840.23675
  0
LINE
  8
┌▓È5
 10
1349.838
 20
5940.23675
 11
1349.838
 21
5840.23675
  0
LINE
  8
┌▓È5
  6
CONTINUOUS
 10
1349.838
 20
7423.57025
 11
1349.838
 21
7353.57025
  0
LINE
  8
┌▓È5
  6
CONTINUOUS
 10
1349.838
 20
9906.9035
 11
1349.838
 21
9836.9035
  0
LINE
  8
┌▓È5
  6
CONTINUOUS
 10
1349.838
 20
10873.57
 11
1349.838
 21
10803.57
  0
LINE
  8
┌▓È5
  6
CONTINUOUS
 10
19.838
 20
9836.9035
 11
19.838
 21
9906.9035
  0
LINE
  8
┌▓È5
  6
CONTINUOUS
 10
1349.838
 20
9906.9035
 11
19.838
 21
9906.9035
  0
LINE
  8
┌▓È5
  6
CONTINUOUS
 10
19.838
 20
9836.9035
 11
1349.838
 21
9836.9035
  0
LINE
  8
┌▓È5
  6
CONTINUOUS
 10
19.838
 20
10803.57
 11
19.838
 21
10873.57
  0
LINE
  8
┌▓È5
  6
CONTINUOUS
 10
1349.838
 20
10873.57
 11
19.838
 21
10873.57
  0
LINE
  8
┌▓È5
  6
CONTINUOUS
 10
19.838
 20
10803.57
 11
1349.838
 21
10803.57
  0
LINE
  8
┌▓È5
  6
CONTINUOUS
 10
19.838
 20
7353.57025
 11
19.838
 21
7423.57025
  0
LINE
  8
┌▓È5
  6
CONTINUOUS
 10
1349.838
 20
7423.57025
 11
19.838
 21
7423.57025
  0
LINE
  8
┌▓È5
  6
CONTINUOUS
 10
19.838
 20
7353.57025
 11
1349.838
 21
7353.57025
  0
LINE
  8
┌▓È5
 10
4796.5045
 20
5840.23675
 11
4796.5045
 21
14840.23675
  0
LINE
  8
┌▓È5
 10
4876.5045
 20
5840.23675
 11
4876.5045
 21
14840.23675
  0
LINE
  8
┌▓È5
 10
10716.5045
 20
5840.23675
 11
10716.5045
 21
14840.23675
  0
LINE
  8
┌▓È5
 10
10796.5045
 20
5840.23675
 11
10796.5045
 21
14840.23675
  0
LINE
  8
┌▓È5
 10
4876.5045
 20
13173.57025
 11
10716.5045
 21
13173.57025
  0
LINE
  8
┌▓È5
 10
4876.5045
 20
11940.23675
 11
10716.5045
 21
11940.23675
  0
LINE
  8
┌▓È5
 10
4876.5045
 20
11840.23675
 11
10716.5045
 21
11840.23675
  0
LINE
  8
┌▓È5
 10
4876.5045
 20
5940.23675
 11
10716.5045
 21
5940.23675
  0
CIRCLE
  8
┌▓È5
 10
6553.17125
 20
12256.9035
 40
50.0
  0
CIRCLE
  8
┌▓È5
 10
6119.83775
 20
12256.9035
 40
50.0
  0
CIRCLE
  8
┌▓È5
 10
9039.83775
 20
12256.9035
 40
50.0
  0
CIRCLE
  8
┌▓È5
 10
9473.17125
 20
12256.9035
 40
50.0
  0
LINE
  8
┌▓È5
 10
9256.5045
 20
13173.57025
 11
9256.5045
 21
11940.23675
  0
LINE
  8
┌▓È5
 10
9256.5045
 20
11840.23675
 11
9256.5045
 21
5940.23675
  0
LINE
  8
┌▓È5
 10
7796.5045
 20
13173.57025
 11
7796.5045
 21
11940.23675
  0
LINE
  8
┌▓È5
 10
7796.5045
 20
11840.23675
 11
7796.5045
 21
5940.23675
  0
LINE
  8
┌▓È5
 10
6336.5045
 20
13173.57025
 11
6336.5045
 21
11940.23675
  0
LINE
  8
┌▓È5
 10
6336.5045
 20
11840.23675
 11
6336.5045
 21
5940.23675
  0
CIRCLE
  8
┌▓È5
 10
6553.17125
 20
8840.23675
 40
50.0
  0
CIRCLE
  8
┌▓È5
 10
6119.83775
 20
8840.23675
 40
50.0
  0
CIRCLE
  8
┌▓È5
 10
9473.17125
 20
8840.23675
 40
50.0
  0
CIRCLE
  8
┌▓È5
 10
9039.83775
 20
8840.23675
 40
50.0
  0
LINE
  8
┌▓È5
 10
12463.17125
 20
5840.23675
 11
12463.17125
 21
14840.23675
  0
LINE
  8
┌▓È5
 10
12543.17125
 20
5840.23675
 11
12543.17125
 21
14840.23675
  0
LINE
  8
┌▓È5
 10
18383.17125
 20
5840.23675
 11
18383.17125
 21
14840.23675
  0
LINE
  8
┌▓È5
 10
18463.17125
 20
5840.23675
 11
18463.17125
 21
14840.23675
  0
LINE
  8
┌▓È5
 10
12543.17125
 20
13173.57025
 11
18383.17125
 21
13173.57025
  0
LINE
  8
┌▓È5
 10
12543.17125
 20
5940.23675
 11
18383.17125
 21
5940.23675
  0
LINE
  8
┌▓È5
 10
12543.17125
 20
6006.9035
 11
18383.17125
 21
6006.9035
  0
LINE
  8
┌▓È5
  6
CONTINUOUS
 10
18366.50475
 20
7423.57025
 11
18366.50475
 21
7353.57025
  0
LINE
  8
┌▓È5
  6
CONTINUOUS
 10
18366.50475
 20
9906.9035
 11
18366.50475
 21
9836.9035
  0
LINE
  8
┌▓È5
  6
CONTINUOUS
 10
18366.50475
 20
10873.57
 11
18366.50475
 21
10803.57
  0
LINE
  8
┌▓È5
 10
12543.17125
 20
13073.57025
 11
18383.17125
 21
13073.57025
  0
LINE
  8
┌▓È5
 10
15423.17125
 20
13073.57025
 11
15423.17125
 21
6006.9035
  0
LINE
  8
┌▓È5
 10
15503.17125
 20
13073.57025
 11
15503.17125
 21
6006.9035
  0
LINE
  8
┌▓È5
  6
CONTINUOUS
 10
15406.50475
 20
7423.57025
 11
15406.50475
 21
7353.57025
  0
LINE
  8
┌▓È5
  6
CONTINUOUS
 10
15406.50475
 20
9906.9035
 11
15406.50475
 21
9836.9035
  0
LINE
  8
┌▓È5
  6
CONTINUOUS
 10
15406.50475
 20
10873.57
 11
15406.50475
 21
10803.57
  0
LINE
  8
┌▓È5
 10
12543.17125
 20
11940.23675
 11
15423.17125
 21
11940.23675
  0
LINE
  8
┌▓È5
 10
15503.17125
 20
11940.23675
 11
18383.17125
 21
11940.23675
  0
LINE
  8
┌▓È5
 10
12543.17125
 20
11840.23675
 11
15423.17125
 21
11840.23675
  0
LINE
  8
┌▓È5
 10
15503.17125
 20
11840.23675
 11
18383.17125
 21
11840.23675
  0
LINE
  8
┌▓È5
  6
CONTINUOUS
 10
15519.838
 20
7353.57025
 11
15519.838
 21
7423.57025
  0
LINE
  8
┌▓È5
  6
CONTINUOUS
 10
15519.838
 20
9836.9035
 11
15519.838
 21
9906.9035
  0
LINE
  8
┌▓È5
  6
CONTINUOUS
 10
15519.838
 20
10803.57
 11
15519.838
 21
10873.57
  0
LINE
  8
┌▓È5
  6
CONTINUOUS
 10
12559.838
 20
7353.57025
 11
12559.838
 21
7423.57025
  0
LINE
  8
┌▓È5
  6
CONTINUOUS
 10
12559.838
 20
9836.9035
 11
12559.838
 21
9906.9035
  0
LINE
  8
┌▓È5
  6
CONTINUOUS
 10
12559.838
 20
10803.57
 11
12559.838
 21
10873.57
  0
LINE
  8
┌▓È5
 10
18383.17125
 20
8940.23675
 11
15503.17125
 21
8940.23675
  0
LINE
  8
┌▓È5
 10
15423.17125
 20
8940.23675
 11
12543.17125
 21
8940.23675
  0
LINE
  8
┌▓È5
 10
18383.17125
 20
8840.23675
 11
15503.17125
 21
8840.23675
  0
LINE
  8
┌▓È5
 10
15423.17125
 20
8840.23675
 11
12543.17125
 21
8840.23675
  0
LINE
  8
┌▓È5
  6
CONTINUOUS
 10
18366.50475
 20
7423.57025
 11
15519.838
 21
7423.57025
  0
LINE
  8
┌▓È5
  6
CONTINUOUS
 10
15406.50475
 20
7423.57025
 11
12559.838
 21
7423.57025
  0
LINE
  8
┌▓È5
  6
CONTINUOUS
 10
12559.838
 20
7353.57025
 11
15406.50475
 21
7353.57025
  0
LINE
  8
┌▓È5
  6
CONTINUOUS
 10
15519.838
 20
7353.57025
 11
18366.50475
 21
7353.57025
  0
LINE
  8
┌▓È5
  6
CONTINUOUS
 10
18366.50475
 20
9906.9035
 11
15519.838
 21
9906.9035
  0
LINE
  8
┌▓È5
  6
CONTINUOUS
 10
15406.50475
 20
9906.9035
 11
12559.838
 21
9906.9035
  0
LINE
  8
┌▓È5
  6
CONTINUOUS
 10
12559.838
 20
9836.9035
 11
15406.50475
 21
9836.9035
  0
LINE
  8
┌▓È5
  6
CONTINUOUS
 10
15519.838
 20
9836.9035
 11
18366.50475
 21
9836.9035
  0
LINE
  8
┌▓È5
  6
CONTINUOUS
 10
12559.838
 20
10803.57
 11
15406.50475
 21
10803.57
  0
LINE
  8
┌▓È5
  6
CONTINUOUS
 10
15519.838
 20
10803.57
 11
18366.50475
 21
10803.57
  0
LINE
  8
┌▓È5
  6
CONTINUOUS
 10
18366.50475
 20
10873.57
 11
15519.838
 21
10873.57
  0
LINE
  8
┌▓È5
  6
CONTINUOUS
 10
15406.50475
 20
10873.57
 11
12559.838
 21
10873.57
  0
LINE
  8
┌▓È5
 10
-18456.82875
 20
-3537.269
 11
-12616.82875
 21
-3537.269
  0
LINE
  8
┌▓È5
 10
-18456.82875
 20
-3617.269
 11
-12616.82875
 21
-3617.269
  0
LINE
  8
┌▓È5
 10
-15576.82875
 20
-3617.269
 11
-15576.82875
 21
-5077.269
  0
LINE
  8
┌▓È5
 10
-18456.82875
 20
-2077.269
 11
-18456.82875
 21
-5077.269
  0
LINE
  8
┌▓È5
 10
-15576.82875
 20
-2077.269
 11
-15576.82875
 21
-3537.269
  0
LINE
  8
┌▓È5
 10
-18536.82875
 20
-2077.269
 11
-18536.82875
 21
-5077.269
  0
LINE
  8
┌▓È5
 10
-12536.82875
 20
-5077.269
 11
-12536.82875
 21
-2077.269
  0
LINE
  8
┌▓È5
 10
-15496.82875
 20
-2077.269
 11
-15496.82875
 21
-3537.269
  0
LINE
  8
┌▓È5
 10
-15496.82875
 20
-2157.269
 11
-12616.82875
 21
-2157.269
  0
LINE
  8
┌▓È5
 10
-14056.82875
 20
-2077.269
 11
-14056.82875
 21
-2157.269
  0
LINE
  8
┌▓È5
 10
-18456.82875
 20
-2157.269
 11
-15576.82875
 21
-2157.269
  0
LINE
  8
┌▓È5
 10
-18536.82875
 20
-2077.269
 11
-12536.82875
 21
-2077.269
  0
ARC
  8
┌▓È5
 10
-18456.82863
 20
-2077.269026
 40
1440.0
 50
0.0
 51
90.0
  0
LINE
  8
┌▓È5
 10
-18456.82875
 20
-637.269
 11
-18456.82875
 21
-2077.269
  0
LINE
  8
┌▓È5
 10
-17016.82875
 20
-1410.60225
 11
-17016.82875
 21
-2490.6025
  0
ARC
  8
┌▓È5
 10
-15576.82863
 20
-2077.269026
 40
1440.0
 50
90.0
 51
180.0
  0
LINE
  8
┌▓È5
 10
-15576.82875
 20
-637.269
 11
-15576.82875
 21
-2077.269
  0
ARC
  8
┌▓È5
 10
-15496.82863
 20
-2077.269026
 40
1440.0
 50
0.0
 51
90.0
  0
LINE
  8
┌▓È5
 10
-15496.82875
 20
-637.269
 11
-15496.82875
 21
-2077.269
  0
LINE
  8
┌▓È5
 10
-14056.82875
 20
-1410.60225
 11
-14056.82875
 21
-2490.6025
  0
ARC
  8
┌▓È5
 10
-12616.82863
 20
-2077.269026
 40
1440.0
 50
90.0
 51
180.0
  0
LINE
  8
┌▓È5
 10
-12616.82875
 20
-637.269
 11
-12616.82875
 21
-2077.269
  0
LINE
  8
┌▓È5
 10
-18456.82875
 20
-4997.269
 11
-15576.82875
 21
-4997.269
  0
ARC
  8
┌▓È5
 10
-18456.82863
 20
-5077.269026
 40
1440.0
 50
270.0
 51
360.0
  0
LINE
  8
┌▓È5
 10
-18456.82875
 20
-6517.269
 11
-18456.82875
 21
-5077.269
  0
LINE
  8
┌▓È5
 10
-17016.82875
 20
-5743.93575
 11
-17016.82875
 21
-4663.9355
  0
ARC
  8
┌▓È5
 10
-15576.82863
 20
-5077.269026
 40
1440.0
 50
180.0
 51
270.0
  0
LINE
  8
┌▓È5
 10
-15576.82875
 20
-6517.269
 11
-15576.82875
 21
-5077.269
  0
LINE
  8
┌▓È5
 10
-18536.82875
 20
-5077.269
 11
-15496.82875
 21
-5077.269
  0
LINE
  8
┌▓È5
 10
-12616.82875
 20
-5077.269
 11
-12536.82875
 21
-5077.269
  0
LINE
  8
┌▓È5
 10
-15496.82875
 20
-3617.269
 11
-15496.82875
 21
-5077.269
  0
LINE
  8
┌▓È5
 10
-12616.82875
 20
-5077.269
 11
-12616.82875
 21
-2077.269
  0
LINE
  8
┌▓È5
 10
-10790.162
 20
-3537.269
 11
-4950.162
 21
-3537.269
  0
LINE
  8
┌▓È5
 10
-10790.162
 20
-3617.269
 11
-4950.162
 21
-3617.269
  0
LINE
  8
┌▓È5
 10
-7830.162
 20
-3617.269
 11
-7830.162
 21
-5077.269
  0
LINE
  8
┌▓È5
 10
-7910.162
 20
-2077.269
 11
-7910.162
 21
-3537.269
  0
LINE
  8
┌▓È5
 10
-10870.162
 20
-2077.269
 11
-10870.162
 21
-5077.269
  0
LINE
  8
┌▓È5
 10
-4870.162
 20
-5077.269
 11
-4870.162
 21
-2077.269
  0
LINE
  8
┌▓È5
 10
-4950.162
 20
-5077.269
 11
-4950.162
 21
-2077.269
  0
LINE
  8
┌▓È5
 10
-7830.162
 20
-2077.269
 11
-7830.162
 21
-3537.269
  0
LINE
  8
┌▓È5
 10
-7830.162
 20
-2157.269
 11
-4950.162
 21
-2157.269
  0
LINE
  8
┌▓È5
 10
-6390.162
 20
-2077.269
 11
-6390.162
 21
-2157.269
  0
LINE
  8
┌▓È5
 10
-10790.162
 20
-2157.269
 11
-7910.162
 21
-2157.269
  0
LINE
  8
┌▓È5
 10
-10870.162
 20
-2077.269
 11
-4870.162
 21
-2077.269
  0
ARC
  8
┌▓È5
 10
-10790.162
 20
-2077.26918
 40
1440.0
 50
0.0
 51
90.0
  0
LINE
  8
┌▓È5
 10
-10790.162
 20
-637.269
 11
-10790.162
 21
-2077.269
  0
LINE
  8
┌▓È5
 10
-9350.162
 20
-1410.60225
 11
-9350.162
 21
-2490.6025
  0
ARC
  8
┌▓È5
 10
-7910.162
 20
-2077.26918
 40
1440.0
 50
90.0
 51
180.0
  0
LINE
  8
┌▓È5
 10
-7910.162
 20
-637.269
 11
-7910.162
 21
-2077.269
  0
ARC
  8
┌▓È5
 10
-7830.162
 20
-2077.26918
 40
1440.0
 50
0.0
 51
90.0
  0
LINE
  8
┌▓È5
 10
-7830.162
 20
-637.269
 11
-7830.162
 21
-2077.269
  0
LINE
  8
┌▓È5
 10
-6390.162
 20
-1410.60225
 11
-6390.162
 21
-2490.6025
  0
ARC
  8
┌▓È5
 10
-4950.162
 20
-2077.26918
 40
1440.0
 50
90.0
 51
180.0
  0
LINE
  8
┌▓È5
 10
-4950.162
 20
-637.269
 11
-4950.162
 21
-2077.269
  0
LINE
  8
┌▓È5
 10
-10870.162
 20
-5077.269
 11
-10790.162
 21
-5077.269
  0
LINE
  8
┌▓È5
 10
-7910.162
 20
-5077.269
 11
-4870.162
 21
-5077.269
  0
LINE
  8
┌▓È5
 10
-7910.162
 20
-3617.269
 11
-7910.162
 21
-5077.269
  0
LINE
  8
┌▓È5
 10
-10790.162
 20
-2077.269
 11
-10790.162
 21
-5077.269
  0
LINE
  8
┌▓È5
 10
4876.5045
 20
-3537.269
 11
10716.5045
 21
-3537.269
  0
LINE
  8
┌▓È5
 10
4876.5045
 20
-3617.269
 11
10716.5045
 21
-3617.269
  0
LINE
  8
┌▓È5
 10
7756.5045
 20
-3617.269
 11
7756.5045
 21
-5077.269
  0
LINE
  8
┌▓È5
 10
4876.5045
 20
-2077.269
 11
4876.5045
 21
-5077.269
  0
LINE
  8
┌▓È5
 10
7756.5045
 20
-2077.269
 11
7756.5045
 21
-3537.269
  0
LINE
  8
┌▓È5
 10
4796.5045
 20
-2077.269
 11
4796.5045
 21
-5077.269
  0
LINE
  8
┌▓È5
 10
10796.5045
 20
-5077.269
 11
10796.5045
 21
-2077.269
  0
LINE
  8
┌▓È5
 10
7836.5045
 20
-2077.269
 11
7836.5045
 21
-3537.269
  0
LINE
  8
┌▓È5
 10
7836.5045
 20
-2157.269
 11
10716.5045
 21
-2157.269
  0
LINE
  8
┌▓È5
 10
9276.5045
 20
-2077.269
 11
9276.5045
 21
-2157.269
  0
LINE
  8
┌▓È5
 10
4876.5045
 20
-2157.269
 11
7756.5045
 21
-2157.269
  0
LINE
  8
┌▓È5
 10
4796.5045
 20
-2077.269
 11
10796.5045
 21
-2077.269
  0
ARC
  8
┌▓È5
 10
4876.5045
 20
-2077.269139
 40
1440.0
 50
0.0
 51
90.0
  0
LINE
  8
┌▓È5
 10
4876.5045
 20
-637.269
 11
4876.5045
 21
-2077.269
  0
LINE
  8
┌▓È5
 10
6316.5045
 20
-1410.60225
 11
6316.5045
 21
-2490.6025
  0
ARC
  8
┌▓È5
 10
7756.5045
 20
-2077.269139
 40
1440.0
 50
90.0
 51
180.0
  0
LINE
  8
┌▓È5
 10
7756.5045
 20
-637.269
 11
7756.5045
 21
-2077.269
  0
ARC
  8
┌▓È5
 10
7836.5045
 20
-2077.269139
 40
1440.0
 50
0.0
 51
90.0
  0
LINE
  8
┌▓È5
 10
7836.5045
 20
-637.269
 11
7836.5045
 21
-2077.269
  0
LINE
  8
┌▓È5
 10
9276.5045
 20
-1410.60225
 11
9276.5045
 21
-2490.6025
  0
ARC
  8
┌▓È5
 10
10716.5045
 20
-2077.269139
 40
1440.0
 50
90.0
 51
180.0
  0
LINE
  8
┌▓È5
 10
10716.5045
 20
-637.269
 11
10716.5045
 21
-2077.269
  0
LINE
  8
┌▓È5
 10
4876.5045
 20
-4997.269
 11
7756.5045
 21
-4997.269
  0
ARC
  8
┌▓È5
 10
4876.5045
 20
-5077.269139
 40
1440.0
 50
270.0
 51
360.0
  0
LINE
  8
┌▓È5
 10
4876.5045
 20
-6517.269
 11
4876.5045
 21
-5077.269
  0
LINE
  8
┌▓È5
 10
6316.5045
 20
-5743.93575
 11
6316.5045
 21
-4663.9355
  0
ARC
  8
┌▓È5
 10
7756.5045
 20
-5077.269139
 40
1440.0
 50
180.0
 51
270.0
  0
LINE
  8
┌▓È5
 10
7756.5045
 20
-6517.269
 11
7756.5045
 21
-5077.269
  0
LINE
  8
┌▓È5
 10
7836.5045
 20
-3617.269
 11
7836.5045
 21
-5077.269
  0
LINE
  8
┌▓È5
 10
10716.5045
 20
-5077.269
 11
10716.5045
 21
-2077.269
  0
LINE
  8
┌▓È5
 10
4796.5045
 20
-5077.269
 11
10796.5045
 21
-5077.269
  0
LINE
  8
┌▓È5
 10
7836.5045
 20
-4997.269
 11
10716.5045
 21
-4997.269
  0
ARC
  8
┌▓È5
 10
7836.5045
 20
-5077.269139
 40
1440.0
 50
270.0
 51
360.0
  0
LINE
  8
┌▓È5
 10
7836.5045
 20
-6517.269
 11
7836.5045
 21
-5077.269
  0
LINE
  8
┌▓È5
 10
9276.5045
 20
-5743.93575
 11
9276.5045
 21
-4663.9355
  0
ARC
  8
┌▓È5
 10
10716.5045
 20
-5077.269139
 40
1440.0
 50
180.0
 51
270.0
  0
LINE
  8
┌▓È5
 10
10716.5045
 20
-6517.269
 11
10716.5045
 21
-5077.269
  0
LINE
  8
┌▓È6
 10
-23251.79025
 20
11840.23675
 11
-23251.79025
 21
8940.23675
  0
LINE
  8
┌▓È6
 10
-23401.79025
 20
11840.23675
 11
-23401.79025
 21
8940.23675
  0
LINE
  8
┌▓È6
 10
-26251.79025
 20
13173.57025
 11
-26251.79025
 21
14840.23675
  0
LINE
  8
┌▓È6
 10
-23251.79025
 20
13173.57025
 11
-23251.79025
 21
14840.23675
  0
LINE
  8
┌▓È6
 10
1463.17125
 20
13173.57025
 11
1463.17125
 21
14840.23675
  0
LINE
  8
┌▓È6
 10
-1536.82875
 20
13173.57025
 11
-1536.82875
 21
14840.23675
  0
LINE
  8
┌▓È6
 10
-7910.162
 20
-5077.269
 11
-10790.162
 21
-5077.269
  0
LINE
  8
┌▓È6
 10
-10790.162
 20
-4927.269
 11
-7910.162
 21
-4927.269
  0
TEXT
  7
TextStyle03
  8
òÂÄÜ
 10
18300.0
 20
-16625.0
  1
É}û╩û╝
 40
250.0
 72
     5
 11
19110.0
 21
-16625.0
  0
TEXT
  7
TextStyle03
  8
òÂÄÜ
 10
25050.0
 20
-17825.0
  1
çé
 40
250.0
 72
     5
 11
25300.0
 21
-17825.0
  0
TEXT
  7
TextStyle03
  8
òÂÄÜ
 10
25050.0
 20
-16625.0
  1
ÅkÄ┌
 40
250.0
 72
     5
 11
25580.0
 21
-16625.0
  0
TEXT
  7
TextStyle03
  8
òÂÄÜ
 10
25995.0
 20
-17175.0
  1
1/30
 40
300.0
 72
     5
 11
26685.0
 21
-17175.0
  0
TEXT
  7
TextStyle03
  8
òÂÄÜ
 10
24480.0
 20
18025.0
  1
érüüéPü^éRéO
 40
400.0
 72
     5
 11
27280.0
 21
18025.0
  0
TEXT
  7
TextStyle03
  8
òÂÄÜ
 10
-27100.0
 20
18025.0
  1
érü|éT
 40
400.0
 72
     5
 11
-25740.0
 21
18025.0
  0
TEXT
  7
TextStyle03
  8
òÂÄÜ
 10
19715.0
 20
-17125.0
  1
ëãï´Å┌ìÎÉ}üiéSüj
 40
400.0
 72
     5
 11
23475.0
 21
-17125.0
  0
TEXT
  7
TextStyle03
  8
òÂÄÜ
 10
-23317.5
 20
18025.0
  1
╗╠▀Î▓Ä║ü@ü@Ä¹ö[ÆI(Æåëøòöò¬)
 40
400.0
 72
     5
 11
-16877.5
 21
18025.0
  0
TEXT
  7
TextStyle03
  8
òÂÄÜ
 10
-22955.0
 20
7932.5
  1
└Ì╬ÌïÓò¿
 40
300.0
 72
     5
 11
-21642.5
 21
7932.5
  0
TEXT
  7
TextStyle03
  8
òÂÄÜ
 10
-25182.5
 20
13797.5
  1
Á░╠▀¦
 40
300.0
 72
     5
 11
-24357.5
 21
13797.5
  0
TEXT
  7
TextStyle03
  8
òÂÄÜ
 10
-15965.0
 20
13597.5
  1
Á░╠▀¦
 40
300.0
 72
     5
 11
-15140.0
 21
13597.5
  0
TEXT
  7
TextStyle03
  8
òÂÄÜ
 10
-14442.5
 20
11567.5
  1
Á░╠▀¦
 40
300.0
 72
     5
 11
-13617.5
 21
11567.5
  0
TEXT
  7
TextStyle03
  8
òÂÄÜ
 10
-14526.875
 20
10197.5
  1
(ùáö┬)
 40
300.0
 72
     5
 11
-13533.125
 21
10197.5
  0
TEXT
  7
TextStyle03
  8
òÂÄÜ
 10
-14547.5
 20
6595.0
  1
▄║Ì¦ô³
 40
300.0
 72
     5
 11
-13572.5
 21
6595.0
  0
TEXT
  7
TextStyle03
  8
òÂÄÜ
 10
-8300.0
 20
13597.5
  1
Á░╠▀¦
 40
300.0
 72
     5
 11
-7475.0
 21
13597.5
  0
TEXT
  7
TextStyle03
  8
òÂÄÜ
 10
-6683.75
 20
10817.5
  1
ùáö┬
 40
300.0
 72
     5
 11
-6046.25
 21
10817.5
  0
TEXT
  7
TextStyle03
  8
òÂÄÜ
 10
-6683.75
 20
7190.0
  1
ùáö┬
 40
300.0
 72
     5
 11
-6046.25
 21
7190.0
  0
TEXT
  7
TextStyle03
  8
òÂÄÜ
 10
-430.0
 20
13797.5
  1
Á░╠▀¦
 40
300.0
 72
     5
 11
395.0
 21
13797.5
  0
TEXT
  7
TextStyle03
  8
òÂÄÜ
 10
7367.5
 20
13597.5
  1
Á░╠▀¦
 40
300.0
 72
     5
 11
8192.5
 21
13597.5
  0
TEXT
  7
TextStyle03
  8
òÂÄÜ
 10
15032.5
 20
13597.5
  1
Á░╠▀¦
 40
300.0
 72
     5
 11
15857.5
 21
13597.5
  0
TEXT
  7
TextStyle03
  8
òÂÄÜ
 10
14207.5
 20
4610.0
  1
ü`1,000
 40
300.0
 72
     5
 11
15370.0
 21
4610.0
  0
TEXT
  7
TextStyle03
  8
òÂÄÜ
 10
-17165.0
 20
-3097.5
  1
ÆI
 40
300.0
 72
     5
 11
-16865.0
 21
-3097.5
  0
TEXT
  7
TextStyle03
  8
òÂÄÜ
 10
-14210.0
 20
-3097.5
  1
ÆI
 40
300.0
 72
     5
 11
-13910.0
 21
-3097.5
  0
TEXT
  7
TextStyle03
  8
òÂÄÜ
 10
-17165.0
 20
-4475.0
  1
ÆI
 40
300.0
 72
     5
 11
-16865.0
 21
-4475.0
  0
TEXT
  7
TextStyle03
  8
òÂÄÜ
 10
-9500.0
 20
-3100.0
  1
ÆI
 40
300.0
 72
     5
 11
-9200.0
 21
-3100.0
  0
TEXT
  7
TextStyle03
  8
òÂÄÜ
 10
-6545.0
 20
-3100.0
  1
ÆI
 40
300.0
 72
     5
 11
-6245.0
 21
-3100.0
  0
TEXT
  7
TextStyle03
  8
òÂÄÜ
 10
-9837.5
 20
-4477.5
  1
ÂÌÎ¢ÆI
 40
300.0
 72
     5
 11
-8862.5
 21
-4477.5
  0
TEXT
  7
TextStyle03
  8
òÂÄÜ
 10
6167.5
 20
-3100.0
  1
ÆI
 40
300.0
 72
     5
 11
6467.5
 21
-3100.0
  0
TEXT
  7
TextStyle03
  8
òÂÄÜ
 10
9122.5
 20
-3100.0
  1
ÆI
 40
300.0
 72
     5
 11
9422.5
 21
-3100.0
  0
TEXT
  7
TextStyle03
  8
òÂÄÜ
 10
6167.5
 20
-4477.5
  1
ÆI
 40
300.0
 72
     5
 11
6467.5
 21
-4477.5
  0
TEXT
  7
TextStyle03
  8
òÂÄÜ
 10
9120.0
 20
-4477.5
  1
ÆI
 40
300.0
 72
     5
 11
9420.0
 21
-4477.5
  0
TEXT
  7
TextStyle03
  8
òÂÄÜ
 10
1225.0
 20
-3100.0
  1
üâì¦î╔ÆIüä
 40
300.0
 72
     5
 11
2875.0
 21
-3100.0
  0
TEXT
  7
TextStyle03
  8
òÂÄÜ
 10
1225.0
 20
-4477.5
  1
üâÉ┤îëÆIüä
 40
300.0
 72
     5
 11
2875.0
 21
-4477.5
  0
TEXT
  7
TextStyle03
  8
òÂÄÜ
 10
-15055.625
 20
-4492.5
  1
▄║Ì¦ô³(ë£ìs)
 40
300.0
 72
     5
 11
-13049.375
 21
-4492.5
  0
TEXT
  7
TextStyle03
  8
òÂÄÜ
 10
-7048.125
 20
-4477.5
  1
(ìýïãæõ)
 40
300.0
 72
     5
 11
-5716.875
 21
-4477.5
  0
TEXT
  7
TextStyle03
  8
òÂÄÜ
 10
-15930.0
 20
-8350.0
  1
ë║Æi
 40
400.0
 72
     5
 11
-15080.0
 21
-8350.0
  0
TEXT
  7
TextStyle03
  8
òÂÄÜ
 10
-8300.0
 20
-8350.0
  1
ÆåÆi
 40
400.0
 72
     5
 11
-7450.0
 21
-8350.0
  0
TEXT
  7
TextStyle03
  8
òÂÄÜ
 10
7385.0
 20
-8350.0
  1
ÅÒÆi
 40
400.0
 72
     5
 11
8235.0
 21
-8350.0
  0
TEXT
  7
TextStyle03
  8
òÂÄÜ
 10
-16605.0
 20
2617.5
  1
É┤îëÆIÉ│û╩
 40
400.0
 72
     5
 11
-14405.0
 21
2617.5
  0
TEXT
  7
TextStyle03
  8
òÂÄÜ
 10
-8975.0
 20
2617.5
  1
É┤îëÆIôÓòö
 40
400.0
 72
     5
 11
-6775.0
 21
2617.5
  0
TEXT
  7
TextStyle03
  8
òÂÄÜ
 10
6710.0
 20
2617.5
  1
ì¦î╔ÆIÉ│û╩
 40
400.0
 72
     5
 11
8910.0
 21
2617.5
  0
TEXT
  7
TextStyle03
  8
òÂÄÜ
 10
14377.5
 20
2617.5
  1
ì¦î╔ÆIôÓòö
 40
400.0
 72
     5
 11
16577.5
 21
2617.5
  0
TEXT
  7
TextStyle03
  8
òÂÄÜ
 10
-652.5
 20
2617.5
  1
éaÆfû╩
 40
400.0
 72
     5
 11
647.5
 21
2617.5
  0
TEXT
  7
TextStyle03
  8
òÂÄÜ
 10
-25430.0
 20
2617.5
  1
é`Æfû╩
 40
400.0
 72
     5
 11
-24130.0
 21
2617.5
  0
POLYLINE
  8
òÂÄÜ
 66
     1
  0
VERTEX
  8
òÂÄÜ
 10
-16234.66225
 20
5560.6265
  0
VERTEX
  8
òÂÄÜ
 10
-16234.66225
 20
4893.95975
  0
VERTEX
  8
òÂÄÜ
 10
-15901.329
 20
4893.95975
  0
SEQEND
  0
POLYLINE
  8
òÂÄÜ
 66
     1
  0
VERTEX
  8
òÂÄÜ
 10
-13355.308
 20
5560.6265
  0
VERTEX
  8
òÂÄÜ
 10
-13355.308
 20
4893.95975
  0
VERTEX
  8
òÂÄÜ
 10
-13688.64125
 20
4893.95975
  0
SEQEND
  0
TEXT
  7
TextStyle03
  8
òÂÄÜ
 10
-15790.0
 20
4775.0
  1
é`
 40
300.0
 72
     5
 11
-15490.0
 21
4775.0
  0
TEXT
  7
TextStyle03
  8
òÂÄÜ
 10
-14095.0
 20
4775.0
  1
éa
 40
300.0
 72
     5
 11
-13795.0
 21
4775.0
  0
POLYLINE
  8
òÂÄÜ
 66
     1
  0
VERTEX
  8
òÂÄÜ
 10
-16234.66225
 20
15119.847
  0
VERTEX
  8
òÂÄÜ
 10
-16234.66225
 20
15786.51375
  0
VERTEX
  8
òÂÄÜ
 10
-15901.329
 20
15786.51375
  0
SEQEND
  0
POLYLINE
  8
òÂÄÜ
 66
     1
  0
VERTEX
  8
òÂÄÜ
 10
-13355.308
 20
15119.847
  0
VERTEX
  8
òÂÄÜ
 10
-13355.308
 20
15786.51375
  0
VERTEX
  8
òÂÄÜ
 10
-13688.64125
 20
15786.51375
  0
SEQEND
  0
TEXT
  7
TextStyle03
  8
òÂÄÜ
 10
-15790.0
 20
15605.0
  1
é`
 40
300.0
 72
     5
 11
-15490.0
 21
15605.0
  0
TEXT
  7
TextStyle03
  8
òÂÄÜ
 10
-14095.0
 20
15605.0
  1
éa
 40
300.0
 72
     5
 11
-13795.0
 21
15605.0
  0
TEXT
  7
TextStyle03
  8
òÂÄÜ
 10
-14641.25
 20
7947.5
  1
æOÁ░╠▀¦
 40
300.0
 72
     5
 11
-13478.75
 21
7947.5
  0
TEXT
  7
TextStyle03
  8
òÂÄÜ
 10
-1590.0
 20
7792.5
  1
▄║Ì¦ô³
 40
300.0
 72
     5
 11
-615.0
 21
7792.5
  0
TEXT
  7
TextStyle03
  8
òÂÄÜ
 10
-1768.125
 20
7402.5
  1
ë£ìs 450
 40
300.0
 72
     5
 11
-436.875
 21
7402.5
  0
TEXT
  7
TextStyle03
  8
òÂÄÜ
 10
25665.0
 20
-18525.0
  1
éOéSéP
 40
400.0
 72
     5
 11
27025.0
 21
-18525.0
  0
TEXT
  7
TextStyle03
  8
òÂÄÜ
 10
-27080.0
 20
-16937.5
  1
ô┴ïLû│é½î└éÞÄdÅÒé░é═â|âèâGâXâeâïìçö┬éãéÀéÚüB
 40
300.0
 72
     5
 11
-19692.5
 21
-16937.5
  0
POLYLINE
  8
Æ╩éÞÉc
 66
     1
  0
VERTEX
  8
Æ╩éÞÉc
 10
-17016.82875
 20
13073.57025
  0
VERTEX
  8
Æ╩éÞÉc
 10
-15576.82875
 20
12506.9035
  0
VERTEX
  8
Æ╩éÞÉc
 10
-17016.82875
 20
11940.23675
  0
SEQEND
  0
POLYLINE
  8
Æ╩éÞÉc
 66
     1
  0
VERTEX
  8
Æ╩éÞÉc
 10
-17016.82875
 20
13073.57025
  0
VERTEX
  8
Æ╩éÞÉc
 10
-18456.82875
 20
12506.9035
  0
VERTEX
  8
Æ╩éÞÉc
 10
-17016.82875
 20
11940.23675
  0
SEQEND
  0
POLYLINE
  8
Æ╩éÞÉc
 66
     1
  0
VERTEX
  8
Æ╩éÞÉc
 10
-17016.82875
 20
8840.23675
  0
VERTEX
  8
Æ╩éÞÉc
 10
-15576.82875
 20
7423.57025
  0
VERTEX
  8
Æ╩éÞÉc
 10
-17016.82875
 20
6006.9035
  0
SEQEND
  0
POLYLINE
  8
Æ╩éÞÉc
 66
     1
  0
VERTEX
  8
Æ╩éÞÉc
 10
-17016.82875
 20
8840.23675
  0
VERTEX
  8
Æ╩éÞÉc
 10
-18456.82875
 20
7423.57025
  0
VERTEX
  8
Æ╩éÞÉc
 10
-17016.82875
 20
6006.9035
  0
SEQEND
  0
LINE
  8
Æ╩éÞÉc
 10
-18456.82875
 20
14840.23675
 11
-12616.82875
 21
13173.57025
  0
LINE
  8
Æ╩éÞÉc
 10
-18456.82875
 20
13173.57025
 11
-12616.82875
 21
14840.23675
  0
LINE
  8
Æ╩éÞÉc
 10
-15496.82875
 20
13073.57025
 11
-12616.82875
 21
8940.23675
  0
LINE
  8
Æ╩éÞÉc
 10
-15496.82875
 20
8940.23675
 11
-12616.82875
 21
13073.57025
  0
LINE
  8
Æ╩éÞÉc
 10
-15496.82875
 20
8840.23675
 11
-12616.82875
 21
5840.23675
  0
LINE
  8
Æ╩éÞÉc
 10
-15496.82875
 20
5840.23675
 11
-12616.82875
 21
8840.23675
  0
LINE
  8
Æ╩éÞÉc
 10
-10790.162
 20
14840.23675
 11
-4950.162
 21
13173.57025
  0
LINE
  8
Æ╩éÞÉc
 10
-10790.162
 20
13173.57025
 11
-4950.162
 21
14840.23675
  0
LINE
  8
Æ╩éÞÉc
 10
4876.5045
 20
14840.23675
 11
10716.5045
 21
13173.57025
  0
LINE
  8
Æ╩éÞÉc
 10
4876.5045
 20
13173.57025
 11
10716.5045
 21
14840.23675
  0
POLYLINE
  8
Æ╩éÞÉc
 66
     1
  0
VERTEX
  8
Æ╩éÞÉc
 10
6336.5045
 20
13173.57025
  0
VERTEX
  8
Æ╩éÞÉc
 10
4876.5045
 20
12556.9035
  0
VERTEX
  8
Æ╩éÞÉc
 10
6336.5045
 20
11940.23675
  0
SEQEND
  0
POLYLINE
  8
Æ╩éÞÉc
 66
     1
  0
VERTEX
  8
Æ╩éÞÉc
 10
9256.5045
 20
13173.57025
  0
VERTEX
  8
Æ╩éÞÉc
 10
7796.5045
 20
12556.9035
  0
VERTEX
  8
Æ╩éÞÉc
 10
9256.5045
 20
11940.23675
  0
SEQEND
  0
POLYLINE
  8
Æ╩éÞÉc
 66
     1
  0
VERTEX
  8
Æ╩éÞÉc
 10
9256.5045
 20
11840.23675
  0
VERTEX
  8
Æ╩éÞÉc
 10
7796.5045
 20
8890.23675
  0
VERTEX
  8
Æ╩éÞÉc
 10
9256.5045
 20
5940.23675
  0
SEQEND
  0
POLYLINE
  8
Æ╩éÞÉc
 66
     1
  0
VERTEX
  8
Æ╩éÞÉc
 10
9256.5045
 20
11840.23675
  0
VERTEX
  8
Æ╩éÞÉc
 10
10716.5045
 20
8890.23675
  0
VERTEX
  8
Æ╩éÞÉc
 10
9256.5045
 20
5940.23675
  0
SEQEND
  0
POLYLINE
  8
Æ╩éÞÉc
 66
     1
  0
VERTEX
  8
Æ╩éÞÉc
 10
6336.5045
 20
11840.23675
  0
VERTEX
  8
Æ╩éÞÉc
 10
7796.5045
 20
8890.23675
  0
VERTEX
  8
Æ╩éÞÉc
 10
6336.5045
 20
5940.23675
  0
SEQEND
  0
POLYLINE
  8
Æ╩éÞÉc
 66
     1
  0
VERTEX
  8
Æ╩éÞÉc
 10
6336.5045
 20
11840.23675
  0
VERTEX
  8
Æ╩éÞÉc
 10
4876.5045
 20
8890.23675
  0
VERTEX
  8
Æ╩éÞÉc
 10
6336.5045
 20
5940.23675
  0
SEQEND
  0
POLYLINE
  8
Æ╩éÞÉc
 66
     1
  0
VERTEX
  8
Æ╩éÞÉc
 10
6336.5045
 20
13173.57025
  0
VERTEX
  8
Æ╩éÞÉc
 10
7796.5045
 20
12556.9035
  0
VERTEX
  8
Æ╩éÞÉc
 10
6336.5045
 20
11940.23675
  0
SEQEND
  0
POLYLINE
  8
Æ╩éÞÉc
 66
     1
  0
VERTEX
  8
Æ╩éÞÉc
 10
9256.5045
 20
13173.57025
  0
VERTEX
  8
Æ╩éÞÉc
 10
10716.5045
 20
12556.9035
  0
VERTEX
  8
Æ╩éÞÉc
 10
9256.5045
 20
11940.23675
  0
SEQEND
  0
LINE
  8
Æ╩éÞÉc
 10
12543.17125
 20
14840.23675
 11
18383.17125
 21
13173.57025
  0
LINE
  8
Æ╩éÞÉc
 10
12543.17125
 20
13173.57025
 11
18383.17125
 21
14840.23675
  0
LINE
  8
┌▓È10
 10
-27650.0
 20
18775.0
 11
-27650.0
 21
-15643.565
  0
LINE
  8
┌▓È10
  6
CONTINUOUS
 10
-27650.0
 20
18775.0
 11
27700.0
 21
18775.0
  0
LINE
  8
┌▓È10
  6
CONTINUOUS
 10
27700.0
 20
-15643.565
 11
-27650.0
 21
-15643.565
  0
LINE
  8
┌▓È10
  6
CONTINUOUS
 10
27700.0
 20
-15643.565
 11
27700.0
 21
18775.0
  0
LINE
  8
┌▓È10
 10
-27650.0
 20
17775.0
 11
27700.0
 21
17775.0
  0
LINE
  8
┌▓È10
 10
-24650.0
 20
18775.0
 11
-24650.0
 21
17775.0
  0
LINE
  8
┌▓È10
 10
-24650.0
 20
18775.0
 11
-24650.0
 21
17775.0
  0
LINE
  8
┌▓È10
 10
-24650.0
 20
18775.0
 11
-24650.0
 21
17775.0
  0
INSERT
  2
*DIM_0068
  8
Éíû@
 10
0.0
 20
0.0
  0
INSERT
  2
*DIM_0069
  8
Éíû@
 10
0.0
 20
0.0
  0
INSERT
  2
*DIM_0070
  8
Éíû@
 10
0.0
 20
0.0
  0
INSERT
  2
*DIM_0071
  8
Éíû@
 10
0.0
 20
0.0
  0
INSERT
  2
*DIM_0072
  8
Éíû@
 10
0.0
 20
0.0
  0
INSERT
  2
*DIM_0073
  8
Éíû@
 10
0.0
 20
0.0
  0
INSERT
  2
*GRP_0074
  8
Éíû@
 10
0.0
 20
0.0
  0
INSERT
  2
*DIM_0075
  8
Éíû@
 10
0.0
 20
0.0
  0
INSERT
  2
*DIM_0076
  8
Éíû@
 10
0.0
 20
0.0
  0
INSERT
  2
*DIM_0077
  8
Éíû@
 10
0.0
 20
0.0
  0
INSERT
  2
*DIM_0078
  8
Éíû@
 10
0.0
 20
0.0
  0
INSERT
  2
*DIM_0079
  8
Éíû@
 10
0.0
 20
0.0
  0
INSERT
  2
*DIM_0080
  8
Éíû@
 10
0.0
 20
0.0
  0
INSERT
  2
*DIM_0081
  8
Éíû@
 10
0.0
 20
0.0
  0
INSERT
  2
*DIM_0082
  8
Éíû@
 10
0.0
 20
0.0
  0
INSERT
  2
*DIM_0083
  8
Éíû@
 10
0.0
 20
0.0
  0
INSERT
  2
*DIM_0084
  8
Éíû@
 10
0.0
 20
0.0
  0
INSERT
  2
*DIM_0085
  8
Éíû@
 10
0.0
 20
0.0
  0
INSERT
  2
*DIM_0086
  8
Éíû@
 10
0.0
 20
0.0
  0
INSERT
  2
*DIM_0087
  8
Éíû@
 10
0.0
 20
0.0
  0
INSERT
  2
*DIM_0088
  8
Éíû@
 10
0.0
 20
0.0
  0
INSERT
  2
*DIM_0089
  8
Éíû@
 10
0.0
 20
0.0
  0
INSERT
  2
*DIM_0090
  8
Éíû@
 10
0.0
 20
0.0
  0
INSERT
  2
*DIM_0091
  8
Éíû@
 10
0.0
 20
0.0
  0
INSERT
  2
*DIM_0092
  8
Éíû@
 10
0.0
 20
0.0
  0
INSERT
  2
*DIM_0093
  8
Éíû@
 10
0.0
 20
0.0
  0
ENDSEC
  0
EOF
