  0
SECTION
  2
HEADER
  9
$EXTMIN
 10
-29700.0
 20
-21000.0
  9
$EXTMAX
 10
29700.0
 20
21000.0
  9
$PDMODE
 70
    32
  9
$PDSIZE
 40
150.0
  9
$LTSCALE
 40
1000.0
  0
ENDSEC
  0
SECTION
  2
TABLES
  0
TABLE
  2
LTYPE
 70
    15
  0
LTYPE
  2
CONTINUOUS
 70
    64
  3
Ä└É³
 72
    65
 73
     0
 40
0.0
  0
LTYPE
  2
DASHED
 70
    64
  3
öjÉ³A
 72
    65
 73
     2
 40
0.6
 49
0.4
 49
-0.2
  0
LTYPE
  2
DASHEDX2
 70
    64
  3
öjÉ³B
 72
    65
 73
     2
 40
1.3
 49
0.9
 49
-0.4
  0
LTYPE
  2
DASHDOT
 70
    64
  3
éPô_ì¢É³A
 72
    65
 73
     4
 40
0.5375
 49
0.375
 49
-0.05
 49
0.0625
 49
-0.05
  0
LTYPE
  2
DASHDOTX2
 70
    64
  3
éPô_ì¢É³B
 72
    65
 73
     4
 40
1.075
 49
0.75
 49
-0.1
 49
0.125
 49
-0.1
  0
LTYPE
  2
DIVIDE2
 70
    64
  3
éQô_ì¢É³A
 72
    65
 73
     6
 40
0.5125
 49
0.3
 49
-0.0375
 49
0.05
 49
-0.0375
 49
0.05
 49
-0.0375
  0
LTYPE
  2
DIVIDE
 70
    64
  3
éQô_ì¢É³B
 72
    65
 73
     6
 40
1.05
 49
0.55
 49
-0.1
 49
0.1
 49
-0.1
 49
0.1
 49
-0.1
  0
LTYPE
  2
DOT
 70
    64
  3
ô_É³A
 72
    65
 73
     2
 40
0.1125
 49
0.0625
 49
-0.05
  0
LTYPE
  2
DOTX2
 70
    64
  3
ô_É³B
 72
    65
 73
     2
 40
0.275
 49
0.15
 49
-0.125
  0
LTYPE
  2
CONTINUOUS
 70
    64
  3
Ä└É³
 72
    65
 73
     0
 40
0.0
  0
LTYPE
  2
CONTINUOUS
 70
    64
  3
Ä└É³
 72
    65
 73
     0
 40
0.0
  0
LTYPE
  2
CONTINUOUS
 70
    64
  3
Ä└É³
 72
    65
 73
     0
 40
0.0
  0
LTYPE
  2
CONTINUOUS
 70
    64
  3
Ä└É³
 72
    65
 73
     0
 40
0.0
  0
LTYPE
  2
CONTINUOUS
 70
    64
  3
Ä└É³
 72
    65
 73
     0
 40
0.0
  0
LTYPE
  2
CONTINUOUS
 70
    64
  3
Ä└É³
 72
    65
 73
     0
 40
0.0
  0
ENDTAB
  0
TABLE
  2
LAYER
 70
    16
  0
LAYER
  2
┌▓È1
 70
     0
 62
    55
  6
CONTINUOUS
  0
LAYER
  2
┌▓È2
 70
     0
 62
    33
  6
CONTINUOUS
  0
LAYER
  2
┌▓È3
 70
     0
 62
    57
  6
CONTINUOUS
  0
LAYER
  2
┌▓È4
 70
     0
 62
    35
  6
CONTINUOUS
  0
LAYER
  2
┌▓È5
 70
     0
 62
    36
  6
CONTINUOUS
  0
LAYER
  2
┌▓È6
 70
     0
 62
    41
  6
CONTINUOUS
  0
LAYER
  2
òÔÅòÉ³
 70
     0
 62
   -38
  6
DOT
  0
LAYER
  2
òÂÄÜ
 70
     0
 62
    39
  6
CONTINUOUS
  0
LAYER
  2
Æ╩éÞÉc
 70
     0
 62
    40
  6
DASHDOT
  0
LAYER
  2
┌▓È10
 70
     0
 62
    64
  6
CONTINUOUS
  0
LAYER
  2
┌▓È11
 70
     0
 62
    42
  6
CONTINUOUS
  0
LAYER
  2
┌▓È12
 70
     0
 62
    43
  6
CONTINUOUS
  0
LAYER
  2
┌▓È13
 70
     0
 62
    44
  6
CONTINUOUS
  0
LAYER
  2
┌▓È14
 70
     0
 62
    27
  6
CONTINUOUS
  0
LAYER
  2
Éíû@
 70
     0
 62
    46
  6
CONTINUOUS
  0
LAYER
  2
╩»┴¦©Ì
 70
     0
 62
    47
  6
CONTINUOUS
  0
ENDTAB
  0
TABLE
  2
STYLE
 70
    10
  0
STYLE
  2
STANDARD
 70
     0
 40
100.0
 41
1.0
 42
100.0
 50
0.0
 71
     0
  3
TXT
  4
BIGFONT
  0
STYLE
  2
TATE
 70
     4
 40
100.0
 41
1.0
 42
100.0
 50
0.0
 71
     0
  3
TXT
  4
BIGFONT
  0
STYLE
  2
TextStyle03
 70
     0
 40
100.0
 41
1.0
 42
100.0
 50
0.0
 71
     0
  3
MONOTXT
  4
BIGFONT
  0
STYLE
  2
TextStyle04
 70
     0
 40
100.0
 41
1.0
 42
100.0
 50
0.0
 71
     0
  3
MONOTXT
  4
BIGFONT
  0
STYLE
  2
TextStyle05
 70
     0
 40
100.0
 41
1.0
 42
100.0
 50
0.0
 71
     0
  3
MONOTXT
  4
BIGFONT
  0
STYLE
  2
TextStyle06
 70
     0
 40
100.0
 41
1.0
 42
100.0
 50
0.0
 71
     0
  3
MONOTXT
  4
BIGFONT
  0
STYLE
  2
TextStyle07
 70
     0
 40
100.0
 41
1.0
 42
100.0
 50
0.0
 71
     0
  3
MONOTXT
  4
BIGFONT
  0
STYLE
  2
TextStyle08
 70
     0
 40
100.0
 41
1.0
 42
100.0
 50
0.0
 71
     0
  3
MONOTXT
  4
BIGFONT
  0
STYLE
  2
TextStyle09
 70
     0
 40
100.0
 41
1.0
 42
100.0
 50
0.0
 71
     0
  3
MONOTXT
  4
BIGFONT
  0
STYLE
  2
TextStyle10
 70
     0
 40
100.0
 41
1.0
 42
100.0
 50
0.0
 71
     0
  3
MONOTXT
  4
BIGFONT
  0
ENDTAB
  0
ENDSEC
  0
SECTION
  2
BLOCKS
  0
BLOCK
  2
*GRP_0001
 70
    65
 10
0.0
 20
0.0
  0
POINT
  8
Éíû@
 10
-41842.861
 20
12051.051
  0
POLYLINE
  8
Éíû@
 66
     1
  0
VERTEX
  8
Éíû@
 10
-41842.861
 20
12051.051
  0
VERTEX
  8
Éíû@
 10
-42631.273
 20
10550.90175
  0
VERTEX
  8
Éíû@
 10
-42918.00175
 20
10550.90175
  0
SEQEND
  0
ENDBLK
  0
BLOCK
  2
*GRP_0002
 70
    65
 10
0.0
 20
0.0
  0
POINT
  8
Éíû@
 10
-41321.92425
 20
10914.61525
  0
POLYLINE
  8
Éíû@
 66
     1
  0
VERTEX
  8
Éíû@
 10
-41321.92425
 20
10914.61525
  0
VERTEX
  8
Éíû@
 10
-41157.81525
 20
11265.527
  0
VERTEX
  8
Éíû@
 10
-40973.83225
 20
11265.527
  0
SEQEND
  0
ENDBLK
  0
BLOCK
  2
*DIM_0003
 70
    65
 10
0.0
 20
0.0
  0
LINE
  8
Éíû@
 10
-45522.1815
 20
15333.43075
 11
-45522.1815
 21
15933.43075
  0
LINE
  8
Éíû@
 10
-42522.1815
 20
15333.43075
 11
-42522.1815
 21
15933.43075
  0
LINE
  8
Éíû@
 10
-45522.1815
 20
15933.43075
 11
-42522.1815
 21
15933.43075
  0
POINT
  8
Éíû@
 10
-45522.1815
 20
15933.43075
  0
POINT
  8
Éíû@
 10
-42522.1815
 20
15933.43075
  0
TEXT
  7
TextStyle03
  8
Éíû@
  6
CONTINUOUS
 10
-44266.25
 20
15970.0
  1
900
 40
300.0
 72
     5
 11
-43778.75
 21
15970.0
  0
ENDBLK
  0
BLOCK
  2
*DIM_0004
 70
    65
 10
0.0
 20
0.0
  0
LINE
  8
Éíû@
 10
-38522.18125
 20
15333.43075
 11
-38522.18125
 21
15933.43075
  0
LINE
  8
Éíû@
 10
-42522.1815
 20
15933.43075
 11
-38522.18125
 21
15933.43075
  0
POINT
  8
Éíû@
 10
-38522.18125
 20
15933.43075
  0
TEXT
  7
TextStyle03
  8
Éíû@
  6
CONTINUOUS
 10
-40935.0
 20
15970.0
  1
1,200
 40
300.0
 72
     5
 11
-40110.0
 21
15970.0
  0
ENDBLK
  0
BLOCK
  2
*GRP_0005
 70
    65
 10
0.0
 20
0.0
  0
POINT
  8
Éíû@
 10
6186.21925
 20
8597.4565
  0
POLYLINE
  8
Éíû@
 66
     1
  0
VERTEX
  8
Éíû@
 10
6186.21925
 20
8597.4565
  0
VERTEX
  8
Éíû@
 10
5584.18325
 20
9654.14125
  0
VERTEX
  8
Éíû@
 10
4217.64975
 20
9654.14125
  0
SEQEND
  0
ENDBLK
  0
BLOCK
  2
*GRP_0006
 70
    65
 10
0.0
 20
0.0
  0
POINT
  8
Éíû@
 10
8757.895
 20
9049.541
  0
POLYLINE
  8
Éíû@
 66
     1
  0
VERTEX
  8
Éíû@
 10
8757.895
 20
9049.541
  0
VERTEX
  8
Éíû@
 10
9158.819
 20
9743.962
  0
VERTEX
  8
Éíû@
 10
9445.54775
 20
9743.962
  0
SEQEND
  0
ENDBLK
  0
BLOCK
  2
*GRP_0007
 70
    65
 10
0.0
 20
0.0
  0
POINT
  8
Éíû@
 10
17322.104
 20
9049.541
  0
POLYLINE
  8
Éíû@
 66
     1
  0
VERTEX
  8
Éíû@
 10
17322.104
 20
9049.541
  0
VERTEX
  8
Éíû@
 10
17723.028
 20
9743.962
  0
VERTEX
  8
Éíû@
 10
18009.75675
 20
9743.962
  0
SEQEND
  0
ENDBLK
  0
BLOCK
  2
*GRP_0008
 70
    65
 10
0.0
 20
0.0
  0
POINT
  8
Éíû@
 10
17075.895
 20
6948.101
  0
POLYLINE
  8
Éíû@
 66
     1
  0
VERTEX
  8
Éíû@
 10
17075.895
 20
6948.101
  0
VERTEX
  8
Éíû@
 10
16721.99475
 20
7530.80675
  0
VERTEX
  8
Éíû@
 10
15870.56975
 20
7530.80675
  0
SEQEND
  0
ENDBLK
  0
BLOCK
  2
*GRP_0009
 70
    65
 10
0.0
 20
0.0
  0
POINT
  8
Éíû@
 10
4903.019
 20
8597.4565
  0
POLYLINE
  8
Éíû@
 66
     1
  0
VERTEX
  8
Éíû@
 10
4903.019
 20
8597.4565
  0
VERTEX
  8
Éíû@
 10
4217.64975
 20
9654.14125
  0
VERTEX
  8
Éíû@
 10
3546.32325
 20
9654.14125
  0
SEQEND
  0
ENDBLK
  0
BLOCK
  2
*DIM_0010
 70
    65
 10
0.0
 20
0.0
  0
LINE
  8
Éíû@
 10
12190.01325
 20
4854.563
 11
12190.01325
 21
4254.563
  0
LINE
  8
Éíû@
 10
10190.01325
 20
4254.563
 11
12190.01325
 21
4254.563
  0
POINT
  8
Éíû@
 10
12190.01325
 20
4254.563
  0
TEXT
  7
TextStyle03
  8
Éíû@
  6
CONTINUOUS
 10
10946.25
 20
4290.0
  1
600
 40
300.0
 72
     5
 11
11433.75
 21
4290.0
  0
ENDBLK
  0
BLOCK
  2
*DIM_0011
 70
    65
 10
0.0
 20
0.0
  0
LINE
  8
Éíû@
 10
2902.62825
 20
5840.23675
 11
2302.62825
 21
5840.23675
  0
LINE
  8
Éíû@
 10
2902.62825
 20
8840.23675
 11
2302.62825
 21
8840.23675
  0
LINE
  8
Éíû@
 10
2302.62825
 20
5840.23675
 11
2302.62825
 21
8840.23675
  0
POINT
  8
Éíû@
 10
2302.62825
 20
5840.23675
  0
POINT
  8
Éíû@
 10
2302.62825
 20
8840.23675
  0
TEXT
  7
TextStyle03
  8
Éíû@
  6
CONTINUOUS
 10
2265.0
 20
7093.75
  1
900
 40
300.0
 50
90.0
 72
     5
 11
2265.0
 21
7581.25
  0
ENDBLK
  0
BLOCK
  2
*DIM_0012
 70
    65
 10
0.0
 20
0.0
  0
LINE
  8
Éíû@
 10
2902.62825
 20
14840.23675
 11
2302.62825
 21
14840.23675
  0
LINE
  8
Éíû@
 10
2302.62825
 20
8840.23675
 11
2302.62825
 21
14840.23675
  0
POINT
  8
Éíû@
 10
2302.62825
 20
14840.23675
  0
TEXT
  7
TextStyle03
  8
Éíû@
  6
CONTINUOUS
 10
2265.0
 20
11425.0
  1
1,800
 40
300.0
 50
90.0
 72
     5
 11
2265.0
 21
12250.0
  0
ENDBLK
  0
BLOCK
  2
*DIM_0013
 70
    65
 10
0.0
 20
0.0
  0
LINE
  8
Éíû@
 10
16474.3025
 20
4854.563
 11
16474.3025
 21
4254.563
  0
LINE
  8
Éíû@
 10
18474.3025
 20
4854.563
 11
18474.3025
 21
4254.563
  0
LINE
  8
Éíû@
 10
16474.3025
 20
4254.563
 11
18474.3025
 21
4254.563
  0
POINT
  8
Éíû@
 10
16474.3025
 20
4254.563
  0
POINT
  8
Éíû@
 10
18474.3025
 20
4254.563
  0
TEXT
  7
TextStyle03
  8
Éíû@
  6
CONTINUOUS
 10
17228.75
 20
4290.0
  1
600
 40
300.0
 72
     5
 11
17716.25
 21
4290.0
  0
ENDBLK
  0
BLOCK
  2
*DIM_0014
 70
    65
 10
0.0
 20
0.0
  0
LINE
  8
Éíû@
 10
18474.3025
 20
4854.563
 11
18474.3025
 21
4254.563
  0
LINE
  8
Éíû@
 10
21140.96925
 20
4854.563
 11
21140.96925
 21
4254.563
  0
LINE
  8
Éíû@
 10
18474.3025
 20
4254.563
 11
21140.96925
 21
4254.563
  0
POINT
  8
Éíû@
 10
18474.3025
 20
4254.563
  0
POINT
  8
Éíû@
 10
21140.96925
 20
4254.563
  0
TEXT
  7
TextStyle03
  8
Éíû@
  6
CONTINUOUS
 10
19563.75
 20
4290.0
  1
800
 40
300.0
 72
     5
 11
20051.25
 21
4290.0
  0
ENDBLK
  0
BLOCK
  2
*DIM_0015
 70
    65
 10
0.0
 20
0.0
  0
LINE
  8
Éíû@
 10
10190.013
 20
4854.563
 11
10190.013
 21
4254.563
  0
LINE
  8
Éíû@
 10
4190.013
 20
4854.563
 11
4190.013
 21
4254.563
  0
LINE
  8
Éíû@
 10
10190.013
 20
4254.563
 11
4190.013
 21
4254.563
  0
POINT
  8
Éíû@
 10
10190.013
 20
4254.563
  0
POINT
  8
Éíû@
 10
4190.013
 20
4254.563
  0
TEXT
  7
TextStyle03
  8
Éíû@
  6
CONTINUOUS
 10
6777.5
 20
4290.0
  1
1,800
 40
300.0
 72
     5
 11
7602.5
 21
4290.0
  0
ENDBLK
  0
BLOCK
  2
*DIM_0016
 70
    65
 10
0.0
 20
0.0
  0
LINE
  8
Éíû@
 10
2302.62825
 20
5840.23675
 11
1702.62825
 21
5840.23675
  0
LINE
  8
Éíû@
 10
2302.62825
 20
14840.23675
 11
1702.62825
 21
14840.23675
  0
LINE
  8
Éíû@
 10
1702.62825
 20
5840.23675
 11
1702.62825
 21
14840.23675
  0
POINT
  8
Éíû@
 10
1702.62825
 20
5840.23675
  0
POINT
  8
Éíû@
 10
1702.62825
 20
14840.23675
  0
TEXT
  7
TextStyle03
  8
Éíû@
  6
CONTINUOUS
 10
1665.0
 20
9925.0
  1
2,700
 40
300.0
 50
90.0
 72
     5
 11
1665.0
 21
10750.0
  0
ENDBLK
  0
BLOCK
  2
*DIM_0017
 70
    65
 10
0.0
 20
0.0
  0
LINE
  8
Éíû@
 10
15265.33425
 20
5840.23675
 11
14665.33425
 21
5840.23675
  0
LINE
  8
Éíû@
 10
15265.33425
 20
8840.23675
 11
14665.33425
 21
8840.23675
  0
LINE
  8
Éíû@
 10
14665.33425
 20
5840.23675
 11
14665.33425
 21
8840.23675
  0
POINT
  8
Éíû@
 10
14665.33425
 20
5840.23675
  0
POINT
  8
Éíû@
 10
14665.33425
 20
8840.23675
  0
TEXT
  7
TextStyle03
  8
Éíû@
  6
CONTINUOUS
 10
14625.0
 20
7093.75
  1
900
 40
300.0
 50
90.0
 72
     5
 11
14625.0
 21
7581.25
  0
ENDBLK
  0
BLOCK
  2
*DIM_0018
 70
    65
 10
0.0
 20
0.0
  0
LINE
  8
Éíû@
 10
15265.33425
 20
14840.23675
 11
14665.33425
 21
14840.23675
  0
LINE
  8
Éíû@
 10
14665.33425
 20
8840.23675
 11
14665.33425
 21
14840.23675
  0
POINT
  8
Éíû@
 10
14665.33425
 20
14840.23675
  0
TEXT
  7
TextStyle03
  8
Éíû@
  6
CONTINUOUS
 10
14625.0
 20
11425.0
  1
1,800
 40
300.0
 50
90.0
 72
     5
 11
14625.0
 21
12250.0
  0
ENDBLK
  0
BLOCK
  2
*DIM_0019
 70
    65
 10
0.0
 20
0.0
  0
LINE
  8
Éíû@
 10
2160.6965
 20
-12467.19625
 11
2160.6965
 21
-13067.19625
  0
LINE
  8
Éíû@
 10
10894.03
 20
-12467.19625
 11
10894.03
 21
-13067.19625
  0
LINE
  8
Éíû@
 10
2160.6965
 20
-13067.19625
 11
10894.03
 21
-13067.19625
  0
POINT
  8
Éíû@
 10
2160.6965
 20
-13067.19625
  0
POINT
  8
Éíû@
 10
10894.03
 20
-13067.19625
  0
TEXT
  7
TextStyle03
  8
Éíû@
  6
CONTINUOUS
 10
6115.0
 20
-13030.0
  1
2,620
 40
300.0
 72
     5
 11
6940.0
 21
-13030.0
  0
ENDBLK
  0
BLOCK
  2
*DIM_0020
 70
    65
 10
0.0
 20
0.0
  0
LINE
  8
Éíû@
 10
13536.20325
 20
-11867.19625
 11
13536.20325
 21
-12467.19625
  0
LINE
  8
Éíû@
 10
13636.20325
 20
-11867.19625
 11
13636.20325
 21
-12467.19625
  0
LINE
  8
Éíû@
 10
13536.20325
 20
-12467.19625
 11
13636.20325
 21
-12467.19625
  0
POINT
  8
Éíû@
 10
13536.20325
 20
-12467.19625
  0
POINT
  8
Éíû@
 10
13636.20325
 20
-12467.19625
  0
TEXT
  7
TextStyle03
  8
Éíû@
  6
CONTINUOUS
 10
13090.625
 20
-12430.0
  1
30
 40
300.0
 72
     5
 11
13409.375
 21
-12430.0
  0
ENDBLK
  0
BLOCK
  2
*DIM_0021
 70
    65
 10
0.0
 20
0.0
  0
LINE
  8
Éíû@
 10
16636.20325
 20
-11867.19625
 11
16636.20325
 21
-12467.19625
  0
LINE
  8
Éíû@
 10
13636.20325
 20
-12467.19625
 11
16636.20325
 21
-12467.19625
  0
POINT
  8
Éíû@
 10
16636.20325
 20
-12467.19625
  0
TEXT
  7
TextStyle03
  8
Éíû@
  6
CONTINUOUS
 10
14893.75
 20
-12430.0
  1
900
 40
300.0
 72
     5
 11
15381.25
 21
-12430.0
  0
ENDBLK
  0
BLOCK
  2
*DIM_0022
 70
    65
 10
0.0
 20
0.0
  0
LINE
  8
Éíû@
 10
16736.20325
 20
-11867.19625
 11
16736.20325
 21
-12467.19625
  0
LINE
  8
Éíû@
 10
16636.20325
 20
-12467.19625
 11
16736.20325
 21
-12467.19625
  0
POINT
  8
Éíû@
 10
16736.20325
 20
-12467.19625
  0
TEXT
  7
TextStyle03
  8
Éíû@
  6
CONTINUOUS
 10
16528.125
 20
-12820.0
  1
30
 40
300.0
 72
     5
 11
16846.875
 21
-12820.0
  0
ENDBLK
  0
BLOCK
  2
*DIM_0023
 70
    65
 10
0.0
 20
0.0
  0
LINE
  8
Éíû@
 10
13536.20325
 20
-12467.19625
 11
13536.20325
 21
-13067.19625
  0
LINE
  8
Éíû@
 10
22269.53675
 20
-12467.19625
 11
22269.53675
 21
-13067.19625
  0
LINE
  8
Éíû@
 10
13536.20325
 20
-13067.19625
 11
22269.53675
 21
-13067.19625
  0
POINT
  8
Éíû@
 10
13536.20325
 20
-13067.19625
  0
POINT
  8
Éíû@
 10
22269.53675
 20
-13067.19625
  0
TEXT
  7
TextStyle03
  8
Éíû@
  6
CONTINUOUS
 10
17490.0
 20
-13030.0
  1
2,620
 40
300.0
 72
     5
 11
18315.0
 21
-13030.0
  0
ENDBLK
  0
BLOCK
  2
*DIM_0024
 70
    65
 10
0.0
 20
0.0
  0
LINE
  8
Éíû@
 10
16736.20325
 20
-11867.19625
 11
16736.20325
 21
-12467.19625
  0
LINE
  8
Éíû@
 10
19402.87
 20
-11867.19625
 11
19402.87
 21
-12467.19625
  0
LINE
  8
Éíû@
 10
16736.20325
 20
-12467.19625
 11
19402.87
 21
-12467.19625
  0
POINT
  8
Éíû@
 10
16736.20325
 20
-12467.19625
  0
POINT
  8
Éíû@
 10
19402.87
 20
-12467.19625
  0
TEXT
  7
TextStyle03
  8
Éíû@
  6
CONTINUOUS
 10
17826.25
 20
-12430.0
  1
800
 40
300.0
 72
     5
 11
18313.75
 21
-12430.0
  0
ENDBLK
  0
BLOCK
  2
*DIM_0025
 70
    65
 10
0.0
 20
0.0
  0
LINE
  8
Éíû@
 10
19502.87
 20
-11867.19625
 11
19502.87
 21
-12467.19625
  0
LINE
  8
Éíû@
 10
22169.53675
 20
-11867.19625
 11
22169.53675
 21
-12467.19625
  0
LINE
  8
Éíû@
 10
19502.87
 20
-12467.19625
 11
22169.53675
 21
-12467.19625
  0
POINT
  8
Éíû@
 10
19502.87
 20
-12467.19625
  0
POINT
  8
Éíû@
 10
22169.53675
 20
-12467.19625
  0
TEXT
  7
TextStyle03
  8
Éíû@
  6
CONTINUOUS
 10
20593.75
 20
-12430.0
  1
800
 40
300.0
 72
     5
 11
21081.25
 21
-12430.0
  0
ENDBLK
  0
BLOCK
  2
*DIM_0026
 70
    65
 10
0.0
 20
0.0
  0
LINE
  8
Éíû@
 10
19402.87
 20
-11867.19625
 11
19402.87
 21
-12467.19625
  0
LINE
  8
Éíû@
 10
19502.87
 20
-11867.19625
 11
19502.87
 21
-12467.19625
  0
LINE
  8
Éíû@
 10
19402.87
 20
-12467.19625
 11
19502.87
 21
-12467.19625
  0
POINT
  8
Éíû@
 10
19402.87
 20
-12467.19625
  0
POINT
  8
Éíû@
 10
19502.87
 20
-12467.19625
  0
TEXT
  7
TextStyle03
  8
Éíû@
  6
CONTINUOUS
 10
19293.125
 20
-12782.5
  1
30
 40
300.0
 72
     5
 11
19611.875
 21
-12782.5
  0
ENDBLK
  0
BLOCK
  2
*DIM_0027
 70
    65
 10
0.0
 20
0.0
  0
LINE
  8
Éíû@
 10
22169.53675
 20
-11867.19625
 11
22169.53675
 21
-12467.19625
  0
LINE
  8
Éíû@
 10
22269.53675
 20
-11867.19625
 11
22269.53675
 21
-12467.19625
  0
LINE
  8
Éíû@
 10
22169.53675
 20
-12467.19625
 11
22269.53675
 21
-12467.19625
  0
POINT
  8
Éíû@
 10
22169.53675
 20
-12467.19625
  0
POINT
  8
Éíû@
 10
22269.53675
 20
-12467.19625
  0
TEXT
  7
TextStyle03
  8
Éíû@
  6
CONTINUOUS
 10
21898.125
 20
-12800.0
  1
30
 40
300.0
 72
     5
 11
22216.875
 21
-12800.0
  0
ENDBLK
  0
BLOCK
  2
*DIM_0028
 70
    65
 10
0.0
 20
0.0
  0
LINE
  8
Éíû@
 10
13165.00625
 20
-11035.7125
 11
12565.00625
 21
-11035.7125
  0
LINE
  8
Éíû@
 10
13165.00625
 20
-2602.379
 11
12565.00625
 21
-2602.379
  0
LINE
  8
Éíû@
 10
12565.00625
 20
-11035.7125
 11
12565.00625
 21
-2602.379
  0
POINT
  8
Éíû@
 10
12565.00625
 20
-11035.7125
  0
POINT
  8
Éíû@
 10
12565.00625
 20
-2602.379
  0
TEXT
  7
TextStyle03
  8
Éíû@
  6
CONTINUOUS
 10
12527.5
 20
-7230.0
  1
2,530
 40
300.0
 50
90.0
 72
     5
 11
12527.5
 21
-6405.0
  0
ENDBLK
  0
BLOCK
  2
*DIM_0029
 70
    65
 10
0.0
 20
0.0
  0
LINE
  8
Éíû@
 10
13165.00625
 20
-2369.04575
 11
12565.00625
 21
-2369.04575
  0
LINE
  8
Éíû@
 10
12565.00625
 20
-2602.379
 11
12565.00625
 21
-2369.04575
  0
POINT
  8
Éíû@
 10
12565.00625
 20
-2369.04575
  0
TEXT
  7
TextStyle03
  8
Éíû@
  6
CONTINUOUS
 10
12527.5
 20
-2644.375
  1
70
 40
300.0
 50
90.0
 72
     5
 11
12527.5
 21
-2325.625
  0
ENDBLK
  0
BLOCK
  2
*DIM_0030
 70
    65
 10
0.0
 20
0.0
  0
LINE
  8
Éíû@
 10
13165.00625
 20
-11035.7125
 11
12565.00625
 21
-11035.7125
  0
LINE
  8
Éíû@
 10
13165.00625
 20
-11369.04575
 11
12565.00625
 21
-11369.04575
  0
LINE
  8
Éíû@
 10
12565.00625
 20
-11035.7125
 11
12565.00625
 21
-11369.04575
  0
POINT
  8
Éíû@
 10
12565.00625
 20
-11035.7125
  0
POINT
  8
Éíû@
 10
12565.00625
 20
-11369.04575
  0
TEXT
  7
TextStyle03
  8
Éíû@
  6
CONTINUOUS
 10
12527.5
 20
-11446.25
  1
100
 40
300.0
 50
90.0
 72
     5
 11
12527.5
 21
-10958.75
  0
ENDBLK
  0
BLOCK
  2
*DIM_0031
 70
    65
 10
0.0
 20
0.0
  0
LINE
  8
Éíû@
 10
1190.364
 20
-11035.7125
 11
590.364
 21
-11035.7125
  0
LINE
  8
Éíû@
 10
1190.364
 20
-2602.379
 11
590.364
 21
-2602.379
  0
LINE
  8
Éíû@
 10
590.364
 20
-11035.7125
 11
590.364
 21
-2602.379
  0
POINT
  8
Éíû@
 10
590.364
 20
-11035.7125
  0
POINT
  8
Éíû@
 10
590.364
 20
-2602.379
  0
TEXT
  7
TextStyle03
  8
Éíû@
  6
CONTINUOUS
 10
552.5
 20
-7230.0
  1
2,530
 40
300.0
 50
90.0
 72
     5
 11
552.5
 21
-6405.0
  0
ENDBLK
  0
BLOCK
  2
*DIM_0032
 70
    65
 10
0.0
 20
0.0
  0
LINE
  8
Éíû@
 10
1190.364
 20
-2369.04575
 11
590.364
 21
-2369.04575
  0
LINE
  8
Éíû@
 10
590.364
 20
-2602.379
 11
590.364
 21
-2369.04575
  0
POINT
  8
Éíû@
 10
590.364
 20
-2369.04575
  0
TEXT
  7
TextStyle03
  8
Éíû@
  6
CONTINUOUS
 10
552.5
 20
-2644.375
  1
70
 40
300.0
 50
90.0
 72
     5
 11
552.5
 21
-2325.625
  0
ENDBLK
  0
BLOCK
  2
*DIM_0033
 70
    65
 10
0.0
 20
0.0
  0
LINE
  8
Éíû@
 10
1790.364
 20
-6169.04575
 11
1190.364
 21
-6169.04575
  0
LINE
  8
Éíû@
 10
1190.364
 20
-5935.7125
 11
1190.364
 21
-6169.04575
  0
POINT
  8
Éíû@
 10
1190.364
 20
-6169.04575
  0
TEXT
  7
TextStyle03
  8
Éíû@
  6
CONTINUOUS
 10
1152.5
 20
-6211.875
  1
70
 40
300.0
 50
90.0
 72
     5
 11
1152.5
 21
-5893.125
  0
ENDBLK
  0
BLOCK
  2
*DIM_0034
 70
    65
 10
0.0
 20
0.0
  0
LINE
  8
Éíû@
 10
1790.364
 20
-6169.04575
 11
1190.364
 21
-6169.04575
  0
LINE
  8
Éíû@
 10
1790.364
 20
-11035.713
 11
1190.364
 21
-11035.713
  0
LINE
  8
Éíû@
 10
1190.364
 20
-6169.04575
 11
1190.364
 21
-11035.713
  0
POINT
  8
Éíû@
 10
1190.364
 20
-6169.04575
  0
POINT
  8
Éíû@
 10
1190.364
 20
-11035.713
  0
TEXT
  7
TextStyle03
  8
Éíû@
  6
CONTINUOUS
 10
1152.5
 20
-9015.0
  1
1,460
 40
300.0
 50
90.0
 72
     5
 11
1152.5
 21
-8190.0
  0
ENDBLK
  0
BLOCK
  2
*DIM_0035
 70
    65
 10
0.0
 20
0.0
  0
LINE
  8
Éíû@
 10
1190.364
 20
-11369.04575
 11
590.364
 21
-11369.04575
  0
LINE
  8
Éíû@
 10
1190.364
 20
-11035.7125
 11
590.364
 21
-11035.7125
  0
LINE
  8
Éíû@
 10
590.364
 20
-11369.04575
 11
590.364
 21
-11035.7125
  0
POINT
  8
Éíû@
 10
590.364
 20
-11369.04575
  0
POINT
  8
Éíû@
 10
590.364
 20
-11035.7125
  0
TEXT
  7
TextStyle03
  8
Éíû@
  6
CONTINUOUS
 10
552.5
 20
-11446.25
  1
100
 40
300.0
 50
90.0
 72
     5
 11
552.5
 21
-10958.75
  0
ENDBLK
  0
BLOCK
  2
*DIM_0036
 70
    65
 10
0.0
 20
0.0
  0
LINE
  8
Éíû@
 10
1790.364
 20
-2602.379
 11
1190.364
 21
-2602.379
  0
LINE
  8
Éíû@
 10
1790.364
 20
-5935.7125
 11
1190.364
 21
-5935.7125
  0
LINE
  8
Éíû@
 10
1190.364
 20
-2602.379
 11
1190.364
 21
-5935.7125
  0
POINT
  8
Éíû@
 10
1190.364
 20
-2602.379
  0
POINT
  8
Éíû@
 10
1190.364
 20
-5935.7125
  0
TEXT
  7
TextStyle03
  8
Éíû@
  6
CONTINUOUS
 10
1152.5
 20
-4680.0
  1
1,000
 40
300.0
 50
90.0
 72
     5
 11
1152.5
 21
-3855.0
  0
ENDBLK
  0
BLOCK
  2
*DIM_0037
 70
    65
 10
0.0
 20
0.0
  0
LINE
  8
Éíû@
 10
23622.75475
 20
-12467.1965
 11
23622.75475
 21
-13067.1965
  0
LINE
  8
Éíû@
 10
25689.4215
 20
-12467.1965
 11
25689.4215
 21
-13067.1965
  0
LINE
  8
Éíû@
 10
23622.75475
 20
-13067.1965
 11
25689.4215
 21
-13067.1965
  0
POINT
  8
Éíû@
 10
23622.75475
 20
-13067.1965
  0
POINT
  8
Éíû@
 10
25689.4215
 20
-13067.1965
  0
TEXT
  7
TextStyle03
  8
Éíû@
  6
CONTINUOUS
 10
24408.75
 20
-13030.0
  1
620
 40
300.0
 72
     5
 11
24896.25
 21
-13030.0
  0
ENDBLK
  0
BLOCK
  2
*DIM_0038
 70
    65
 10
0.0
 20
0.0
  0
LINE
  8
Éíû@
 10
25689.4215
 20
-11867.1965
 11
25689.4215
 21
-12467.1965
  0
LINE
  8
Éíû@
 10
23922.75475
 20
-11867.1965
 11
23922.75475
 21
-12467.1965
  0
LINE
  8
Éíû@
 10
25689.4215
 20
-12467.1965
 11
23922.75475
 21
-12467.1965
  0
POINT
  8
Éíû@
 10
25689.4215
 20
-12467.1965
  0
POINT
  8
Éíû@
 10
23922.75475
 20
-12467.1965
  0
TEXT
  7
TextStyle03
  8
Éíû@
  6
CONTINUOUS
 10
24558.75
 20
-12432.5
  1
530
 40
300.0
 72
     5
 11
25046.25
 21
-12432.5
  0
ENDBLK
  0
BLOCK
  2
*DIM_0039
 70
    65
 10
0.0
 20
0.0
  0
LINE
  8
Éíû@
 10
25867.7895
 20
-9369.046
 11
26467.7895
 21
-9369.046
  0
LINE
  8
Éíû@
 10
25867.7895
 20
-7702.37925
 11
26467.7895
 21
-7702.37925
  0
LINE
  8
Éíû@
 10
26467.7895
 20
-9369.046
 11
26467.7895
 21
-7702.37925
  0
POINT
  8
Éíû@
 10
26467.7895
 20
-9369.046
  0
POINT
  8
Éíû@
 10
26467.7895
 20
-7702.37925
  0
TEXT
  7
TextStyle03
  8
Éíû@
  6
CONTINUOUS
 10
26430.0
 20
-8781.25
  1
500
 40
300.0
 50
90.0
 72
     5
 11
26430.0
 21
-8293.75
  0
ENDBLK
  0
BLOCK
  2
*DIM_0040
 70
    65
 10
0.0
 20
0.0
  0
LINE
  8
Éíû@
 10
25867.7895
 20
-7702.37925
 11
26467.7895
 21
-7702.37925
  0
LINE
  8
Éíû@
 10
25867.7895
 20
-5935.7125
 11
26467.7895
 21
-5935.7125
  0
LINE
  8
Éíû@
 10
26467.7895
 20
-7702.37925
 11
26467.7895
 21
-5935.7125
  0
POINT
  8
Éíû@
 10
26467.7895
 20
-7702.37925
  0
POINT
  8
Éíû@
 10
26467.7895
 20
-5935.7125
  0
TEXT
  7
TextStyle03
  8
Éíû@
  6
CONTINUOUS
 10
26430.0
 20
-7066.25
  1
530
 40
300.0
 50
90.0
 72
     5
 11
26430.0
 21
-6578.75
  0
ENDBLK
  0
BLOCK
  2
*DIM_0041
 70
    65
 10
0.0
 20
0.0
  0
LINE
  8
Éíû@
 10
25867.7895
 20
-5935.7125
 11
26467.7895
 21
-5935.7125
  0
LINE
  8
Éíû@
 10
25867.7895
 20
-4269.04575
 11
26467.7895
 21
-4269.04575
  0
LINE
  8
Éíû@
 10
26467.7895
 20
-5935.7125
 11
26467.7895
 21
-4269.04575
  0
POINT
  8
Éíû@
 10
26467.7895
 20
-5935.7125
  0
POINT
  8
Éíû@
 10
26467.7895
 20
-4269.04575
  0
TEXT
  7
TextStyle03
  8
Éíû@
  6
CONTINUOUS
 10
26430.0
 20
-5348.75
  1
500
 40
300.0
 50
90.0
 72
     5
 11
26430.0
 21
-4861.25
  0
ENDBLK
  0
BLOCK
  2
*DIM_0042
 70
    65
 10
0.0
 20
0.0
  0
LINE
  8
Éíû@
 10
25867.7895
 20
-4269.04575
 11
26467.7895
 21
-4269.04575
  0
LINE
  8
Éíû@
 10
25867.7895
 20
-2602.379
 11
26467.7895
 21
-2602.379
  0
LINE
  8
Éíû@
 10
26467.7895
 20
-4269.04575
 11
26467.7895
 21
-2602.379
  0
POINT
  8
Éíû@
 10
26467.7895
 20
-4269.04575
  0
POINT
  8
Éíû@
 10
26467.7895
 20
-2602.379
  0
TEXT
  7
TextStyle03
  8
Éíû@
  6
CONTINUOUS
 10
26430.0
 20
-3681.25
  1
500
 40
300.0
 50
90.0
 72
     5
 11
26430.0
 21
-3193.75
  0
ENDBLK
  0
BLOCK
  2
*DIM_0043
 70
    65
 10
0.0
 20
0.0
  0
LINE
  8
Éíû@
 10
26467.7895
 20
-11035.71275
 11
27067.7895
 21
-11035.71275
  0
LINE
  8
Éíû@
 10
26467.7895
 20
-6169.046
 11
27067.7895
 21
-6169.046
  0
LINE
  8
Éíû@
 10
27067.7895
 20
-11035.71275
 11
27067.7895
 21
-6169.046
  0
POINT
  8
Éíû@
 10
27067.7895
 20
-11035.71275
  0
POINT
  8
Éíû@
 10
27067.7895
 20
-6169.046
  0
TEXT
  7
TextStyle03
  8
Éíû@
  6
CONTINUOUS
 10
27030.0
 20
-9017.5
  1
1,460
 40
300.0
 50
90.0
 72
     5
 11
27030.0
 21
-8192.5
  0
ENDBLK
  0
BLOCK
  2
*DIM_0044
 70
    65
 10
0.0
 20
0.0
  0
LINE
  8
Éíû@
 10
26467.7895
 20
-5935.7125
 11
27067.7895
 21
-5935.7125
  0
LINE
  8
Éíû@
 10
26467.7895
 20
-2602.379
 11
27067.7895
 21
-2602.379
  0
LINE
  8
Éíû@
 10
27067.7895
 20
-5935.7125
 11
27067.7895
 21
-2602.379
  0
POINT
  8
Éíû@
 10
27067.7895
 20
-5935.7125
  0
POINT
  8
Éíû@
 10
27067.7895
 20
-2602.379
  0
TEXT
  7
TextStyle03
  8
Éíû@
  6
CONTINUOUS
 10
27030.0
 20
-4685.0
  1
1,000
 40
300.0
 50
90.0
 72
     5
 11
27030.0
 21
-3860.0
  0
ENDBLK
  0
BLOCK
  2
*DIM_0045
 70
    65
 10
0.0
 20
0.0
  0
LINE
  8
Éíû@
 10
25867.7895
 20
-11035.71275
 11
26467.7895
 21
-11035.71275
  0
LINE
  8
Éíû@
 10
27067.7895
 20
-9369.046
 11
26467.7895
 21
-9369.046
  0
LINE
  8
Éíû@
 10
26467.7895
 20
-11035.71275
 11
26467.7895
 21
-9369.046
  0
POINT
  8
Éíû@
 10
26467.7895
 20
-11035.71275
  0
POINT
  8
Éíû@
 10
26467.7895
 20
-9369.046
  0
TEXT
  7
TextStyle03
  8
Éíû@
  6
CONTINUOUS
 10
26430.0
 20
-10448.75
  1
500
 40
300.0
 50
90.0
 72
     5
 11
26430.0
 21
-9961.25
  0
ENDBLK
  0
BLOCK
  2
*DIM_0046
 70
    65
 10
0.0
 20
0.0
  0
LINE
  8
Éíû@
 10
26467.7895
 20
-2602.379
 11
27067.7895
 21
-2602.379
  0
LINE
  8
Éíû@
 10
26467.7895
 20
-2369.04575
 11
27067.7895
 21
-2369.04575
  0
LINE
  8
Éíû@
 10
27067.7895
 20
-2602.379
 11
27067.7895
 21
-2369.04575
  0
POINT
  8
Éíû@
 10
27067.7895
 20
-2602.379
  0
POINT
  8
Éíû@
 10
27067.7895
 20
-2369.04575
  0
TEXT
  7
TextStyle03
  8
Éíû@
  6
CONTINUOUS
 10
27025.0
 20
-2266.875
  1
70
 40
300.0
 50
90.0
 72
     5
 11
27025.0
 21
-1948.125
  0
ENDBLK
  0
BLOCK
  2
*DIM_0047
 70
    65
 10
0.0
 20
0.0
  0
LINE
  8
Éíû@
 10
26467.7895
 20
-6169.046
 11
27067.7895
 21
-6169.046
  0
LINE
  8
Éíû@
 10
26467.7895
 20
-5935.7125
 11
27067.7895
 21
-5935.7125
  0
LINE
  8
Éíû@
 10
27067.7895
 20
-6169.046
 11
27067.7895
 21
-5935.7125
  0
POINT
  8
Éíû@
 10
27067.7895
 20
-6169.046
  0
POINT
  8
Éíû@
 10
27067.7895
 20
-5935.7125
  0
TEXT
  7
TextStyle03
  8
Éíû@
  6
CONTINUOUS
 10
27020.0
 20
-6556.875
  1
70
 40
300.0
 50
90.0
 72
     5
 11
27020.0
 21
-6238.125
  0
ENDBLK
  0
BLOCK
  2
*DIM_0048
 70
    65
 10
0.0
 20
0.0
  0
LINE
  8
Éíû@
 10
26467.7895
 20
-11369.046
 11
27067.7895
 21
-11369.046
  0
LINE
  8
Éíû@
 10
26467.7895
 20
-11035.71275
 11
27067.7895
 21
-11035.71275
  0
LINE
  8
Éíû@
 10
27067.7895
 20
-11369.046
 11
27067.7895
 21
-11035.71275
  0
POINT
  8
Éíû@
 10
27067.7895
 20
-11369.046
  0
POINT
  8
Éíû@
 10
27067.7895
 20
-11035.71275
  0
TEXT
  7
TextStyle03
  8
Éíû@
  6
CONTINUOUS
 10
27027.5
 20
-10931.25
  1
100
 40
300.0
 50
90.0
 72
     5
 11
27027.5
 21
-10443.75
  0
ENDBLK
  0
BLOCK
  2
*DIM_0049
 70
    65
 10
0.0
 20
0.0
  0
LINE
  8
Éíû@
 10
23922.75475
 20
-11867.1965
 11
23922.75475
 21
-12467.1965
  0
LINE
  8
Éíû@
 10
23622.75475
 20
-11867.1965
 11
23622.75475
 21
-12467.1965
  0
LINE
  8
Éíû@
 10
23922.75475
 20
-12467.1965
 11
23622.75475
 21
-12467.1965
  0
POINT
  8
Éíû@
 10
23622.75475
 20
-12467.1965
  0
TEXT
  7
TextStyle03
  8
Éíû@
  6
CONTINUOUS
 10
23293.125
 20
-12437.5
  1
90
 40
300.0
 72
     5
 11
23611.875
 21
-12437.5
  0
ENDBLK
  0
BLOCK
  2
*DIM_0050
 70
    65
 10
0.0
 20
0.0
  0
LINE
  8
Éíû@
 10
2160.6965
 20
-11867.19625
 11
2160.6965
 21
-12467.19625
  0
LINE
  8
Éíû@
 10
2260.6965
 20
-11867.19625
 11
2260.6965
 21
-12467.19625
  0
LINE
  8
Éíû@
 10
2160.6965
 20
-12467.19625
 11
2260.6965
 21
-12467.19625
  0
POINT
  8
Éíû@
 10
2160.6965
 20
-12467.19625
  0
POINT
  8
Éíû@
 10
2260.6965
 20
-12467.19625
  0
TEXT
  7
TextStyle03
  8
Éíû@
  6
CONTINUOUS
 10
1713.125
 20
-12430.0
  1
30
 40
300.0
 72
     5
 11
2031.875
 21
-12430.0
  0
ENDBLK
  0
BLOCK
  2
*DIM_0051
 70
    65
 10
0.0
 20
0.0
  0
LINE
  8
Éíû@
 10
5260.6965
 20
-11867.19625
 11
5260.6965
 21
-12467.19625
  0
LINE
  8
Éíû@
 10
2260.6965
 20
-12467.19625
 11
5260.6965
 21
-12467.19625
  0
POINT
  8
Éíû@
 10
5260.6965
 20
-12467.19625
  0
TEXT
  7
TextStyle03
  8
Éíû@
  6
CONTINUOUS
 10
3516.25
 20
-12430.0
  1
900
 40
300.0
 72
     5
 11
4003.75
 21
-12430.0
  0
ENDBLK
  0
BLOCK
  2
*DIM_0052
 70
    65
 10
0.0
 20
0.0
  0
LINE
  8
Éíû@
 10
5360.6965
 20
-11867.19625
 11
5360.6965
 21
-12467.19625
  0
LINE
  8
Éíû@
 10
5260.6965
 20
-12467.19625
 11
5360.6965
 21
-12467.19625
  0
POINT
  8
Éíû@
 10
5360.6965
 20
-12467.19625
  0
TEXT
  7
TextStyle03
  8
Éíû@
  6
CONTINUOUS
 10
5150.625
 20
-12767.5
  1
30
 40
300.0
 72
     5
 11
5469.375
 21
-12767.5
  0
ENDBLK
  0
BLOCK
  2
*DIM_0053
 70
    65
 10
0.0
 20
0.0
  0
LINE
  8
Éíû@
 10
10794.02975
 20
-11867.19625
 11
10794.02975
 21
-12467.19625
  0
LINE
  8
Éíû@
 10
5360.6965
 20
-12467.19625
 11
10794.02975
 21
-12467.19625
  0
POINT
  8
Éíû@
 10
10794.02975
 20
-12467.19625
  0
TEXT
  7
TextStyle03
  8
Éíû@
  6
CONTINUOUS
 10
7662.5
 20
-12430.0
  1
1,630
 40
300.0
 72
     5
 11
8487.5
 21
-12430.0
  0
ENDBLK
  0
BLOCK
  2
*DIM_0054
 70
    65
 10
0.0
 20
0.0
  0
LINE
  8
Éíû@
 10
10894.03
 20
-11867.19625
 11
10894.03
 21
-12467.19625
  0
LINE
  8
Éíû@
 10
10794.02975
 20
-12467.19625
 11
10894.03
 21
-12467.19625
  0
POINT
  8
Éíû@
 10
10894.03
 20
-12467.19625
  0
TEXT
  7
TextStyle03
  8
Éíû@
  6
CONTINUOUS
 10
11020.625
 20
-12430.0
  1
30
 40
300.0
 72
     5
 11
11339.375
 21
-12430.0
  0
ENDBLK
  0
BLOCK
  2
*GRP_0055
 70
    65
 10
0.0
 20
0.0
  0
POINT
  8
Éíû@
 10
2841.80475
 20
-3041.82225
  0
POLYLINE
  8
Éíû@
 66
     1
  0
VERTEX
  8
Éíû@
 10
2841.80475
 20
-3041.82225
  0
VERTEX
  8
Éíû@
 10
4306.38125
 20
-505.101
  0
VERTEX
  8
Éíû@
 10
4849.20125
 20
-505.101
  0
SEQEND
  0
ENDBLK
  0
BLOCK
  2
*GRP_0056
 70
    65
 10
0.0
 20
0.0
  0
POINT
  8
Éíû@
 10
8900.23175
 20
-3041.82225
  0
POLYLINE
  8
Éíû@
 66
     1
  0
VERTEX
  8
Éíû@
 10
8900.23175
 20
-3041.82225
  0
VERTEX
  8
Éíû@
 10
10364.80825
 20
-505.101
  0
VERTEX
  8
Éíû@
 10
10907.62825
 20
-505.101
  0
SEQEND
  0
ENDBLK
  0
BLOCK
  2
*GRP_0057
 70
    65
 10
0.0
 20
0.0
  0
POINT
  8
Éíû@
 10
18168.27425
 20
-3041.82225
  0
POLYLINE
  8
Éíû@
 66
     1
  0
VERTEX
  8
Éíû@
 10
18168.27425
 20
-3041.82225
  0
VERTEX
  8
Éíû@
 10
19632.85075
 20
-505.101
  0
VERTEX
  8
Éíû@
 10
20175.67075
 20
-505.101
  0
SEQEND
  0
ENDBLK
  0
BLOCK
  2
*GRP_0058
 70
    65
 10
0.0
 20
0.0
  0
POINT
  8
Éíû@
 10
-17711.58425
 20
-8640.2055
  0
POLYLINE
  8
Éíû@
 66
     1
  0
VERTEX
  8
Éíû@
 10
-17711.58425
 20
-8640.2055
  0
VERTEX
  8
Éíû@
 10
-18678.4305
 20
-6982.73775
  0
VERTEX
  8
Éíû@
 10
-19557.78175
 20
-6982.73775
  0
SEQEND
  0
ENDBLK
  0
BLOCK
  2
*GRP_0059
 70
    65
 10
0.0
 20
0.0
  0
POINT
  8
Éíû@
 10
-18870.1395
 20
-8266.83325
  0
POLYLINE
  8
Éíû@
 66
     1
  0
VERTEX
  8
Éíû@
 10
-18870.1395
 20
-8266.83325
  0
VERTEX
  8
Éíû@
 10
-19287.144
 20
-7551.34075
  0
VERTEX
  8
Éíû@
 10
-19573.87275
 20
-7551.34075
  0
SEQEND
  0
ENDBLK
  0
BLOCK
  2
*DIM_0060
 70
    65
 10
0.0
 20
0.0
  0
LINE
  8
Éíû@
 10
-8453.118
 20
-11369.04575
 11
-7853.118
 21
-11369.04575
  0
LINE
  8
Éíû@
 10
-8453.118
 20
-8369.04575
 11
-7853.118
 21
-8369.04575
  0
LINE
  8
Éíû@
 10
-7853.118
 20
-11369.04575
 11
-7853.118
 21
-8369.04575
  0
POINT
  8
Éíû@
 10
-7853.118
 20
-11369.04575
  0
POINT
  8
Éíû@
 10
-7853.118
 20
-8369.04575
  0
TEXT
  7
TextStyle03
  8
Éíû@
  6
CONTINUOUS
 10
-7890.0
 20
-10113.75
  1
900
 40
300.0
 50
90.0
 72
     5
 11
-7890.0
 21
-9626.25
  0
ENDBLK
  0
BLOCK
  2
*DIM_0061
 70
    65
 10
0.0
 20
0.0
  0
LINE
  8
Éíû@
 10
-8453.118
 20
-2369.04575
 11
-7853.118
 21
-2369.04575
  0
LINE
  8
Éíû@
 10
-7853.118
 20
-8369.04575
 11
-7853.118
 21
-2369.04575
  0
POINT
  8
Éíû@
 10
-7853.118
 20
-2369.04575
  0
TEXT
  7
TextStyle03
  8
Éíû@
  6
CONTINUOUS
 10
-7890.0
 20
-5782.5
  1
1,800
 40
300.0
 50
90.0
 72
     5
 11
-7890.0
 21
-4957.5
  0
ENDBLK
  0
BLOCK
  2
*DIM_0062
 70
    65
 10
0.0
 20
0.0
  0
LINE
  8
Éíû@
 10
-23487.4455
 20
-11369.04575
 11
-24087.4455
 21
-11369.04575
  0
LINE
  8
Éíû@
 10
-23487.4455
 20
-8369.04575
 11
-24087.4455
 21
-8369.04575
  0
LINE
  8
Éíû@
 10
-24087.4455
 20
-11369.04575
 11
-24087.4455
 21
-8369.04575
  0
POINT
  8
Éíû@
 10
-24087.4455
 20
-11369.04575
  0
POINT
  8
Éíû@
 10
-24087.4455
 20
-8369.04575
  0
TEXT
  7
TextStyle03
  8
Éíû@
  6
CONTINUOUS
 10
-24125.0
 20
-10113.75
  1
900
 40
300.0
 50
90.0
 72
     5
 11
-24125.0
 21
-9626.25
  0
ENDBLK
  0
BLOCK
  2
*DIM_0063
 70
    65
 10
0.0
 20
0.0
  0
LINE
  8
Éíû@
 10
-23487.4455
 20
-2369.04575
 11
-24087.4455
 21
-2369.04575
  0
LINE
  8
Éíû@
 10
-24087.4455
 20
-8369.04575
 11
-24087.4455
 21
-2369.04575
  0
POINT
  8
Éíû@
 10
-24087.4455
 20
-2369.04575
  0
TEXT
  7
TextStyle03
  8
Éíû@
  6
CONTINUOUS
 10
-24125.0
 20
-5782.5
  1
1,800
 40
300.0
 50
90.0
 72
     5
 11
-24125.0
 21
-4957.5
  0
ENDBLK
  0
BLOCK
  2
*DIM_0064
 70
    65
 10
0.0
 20
0.0
  0
LINE
  8
Éíû@
 10
-22318.502
 20
-12354.7195
 11
-22318.502
 21
-12954.7195
  0
LINE
  8
Éíû@
 10
-16318.50225
 20
-12354.7195
 11
-16318.50225
 21
-12954.7195
  0
LINE
  8
Éíû@
 10
-22318.502
 20
-12954.7195
 11
-16318.50225
 21
-12954.7195
  0
POINT
  8
Éíû@
 10
-22318.502
 20
-12954.7195
  0
POINT
  8
Éíû@
 10
-16318.50225
 20
-12954.7195
  0
TEXT
  7
TextStyle03
  8
Éíû@
  6
CONTINUOUS
 10
-19730.0
 20
-12917.5
  1
1,800
 40
300.0
 72
     5
 11
-18905.0
 21
-12917.5
  0
ENDBLK
  0
BLOCK
  2
*DIM_0065
 70
    65
 10
0.0
 20
0.0
  0
LINE
  8
Éíû@
 10
-24088.5015
 20
-11369.04575
 11
-24688.5015
 21
-11369.04575
  0
LINE
  8
Éíû@
 10
-24088.5015
 20
-2369.04575
 11
-24688.5015
 21
-2369.04575
  0
LINE
  8
Éíû@
 10
-24688.5015
 20
-11369.04575
 11
-24688.5015
 21
-2369.04575
  0
POINT
  8
Éíû@
 10
-24688.5015
 20
-11369.04575
  0
POINT
  8
Éíû@
 10
-24688.5015
 20
-2369.04575
  0
TEXT
  7
TextStyle03
  8
Éíû@
  6
CONTINUOUS
 10
-24727.5
 20
-7282.5
  1
2,700
 40
300.0
 50
90.0
 72
     5
 11
-24727.5
 21
-6457.5
  0
ENDBLK
  0
BLOCK
  2
*GRP_0066
 70
    65
 10
0.0
 20
0.0
  0
POINT
  8
Éíû@
 10
-20437.23675
 20
-10727.89275
  0
POLYLINE
  8
Éíû@
 66
     1
  0
VERTEX
  8
Éíû@
 10
-20437.23675
 20
-10727.89275
  0
VERTEX
  8
Éíû@
 10
-19856.929
 20
-11723.5795
  0
VERTEX
  8
Éíû@
 10
-19570.20025
 20
-11723.5795
  0
SEQEND
  0
ENDBLK
  0
BLOCK
  2
*GRP_0067
 70
    65
 10
0.0
 20
0.0
  0
POINT
  8
Éíû@
 10
-21911.20875
 20
-10727.89275
  0
POLYLINE
  8
Éíû@
 66
     1
  0
VERTEX
  8
Éíû@
 10
-21911.20875
 20
-10727.89275
  0
VERTEX
  8
Éíû@
 10
-21065.812
 20
-12178.41675
  0
VERTEX
  8
Éíû@
 10
-20779.08325
 20
-12178.41675
  0
SEQEND
  0
ENDBLK
  0
BLOCK
  2
*GRP_0068
 70
    65
 10
0.0
 20
0.0
  0
POINT
  8
Éíû@
 10
-16981.13475
 20
-10727.89275
  0
POLYLINE
  8
Éíû@
 66
     1
  0
VERTEX
  8
Éíû@
 10
-16981.13475
 20
-10727.89275
  0
VERTEX
  8
Éíû@
 10
-16135.738
 20
-12178.41675
  0
VERTEX
  8
Éíû@
 10
-15849.00925
 20
-12178.41675
  0
SEQEND
  0
ENDBLK
  0
BLOCK
  2
*DIM_0069
 70
    65
 10
0.0
 20
0.0
  0
LINE
  8
Éíû@
 10
-11393.173
 20
-8369.04575
 11
-11993.173
 21
-8369.04575
  0
LINE
  8
Éíû@
 10
-11393.173
 20
-9035.7125
 11
-11993.173
 21
-9035.7125
  0
LINE
  8
Éíû@
 10
-11993.173
 20
-8369.04575
 11
-11993.173
 21
-9035.7125
  0
POINT
  8
Éíû@
 10
-11993.173
 20
-8369.04575
  0
POINT
  8
Éíû@
 10
-11993.173
 20
-9035.7125
  0
TEXT
  7
TextStyle03
  8
Éíû@
  6
CONTINUOUS
 10
-12030.0
 20
-8946.25
  1
200
 40
300.0
 50
90.0
 72
     5
 11
-12030.0
 21
-8458.75
  0
ENDBLK
  0
BLOCK
  2
*DIM_0070
 70
    65
 10
0.0
 20
0.0
  0
LINE
  8
Éíû@
 10
-3369.4625
 20
-11369.04575
 11
-2769.4625
 21
-11369.04575
  0
LINE
  8
Éíû@
 10
-3369.4625
 20
-8369.04575
 11
-2769.4625
 21
-8369.04575
  0
LINE
  8
Éíû@
 10
-2769.4625
 20
-11369.04575
 11
-2769.4625
 21
-8369.04575
  0
POINT
  8
Éíû@
 10
-2769.4625
 20
-11369.04575
  0
POINT
  8
Éíû@
 10
-2769.4625
 20
-8369.04575
  0
TEXT
  7
TextStyle03
  8
Éíû@
  6
CONTINUOUS
 10
-2807.5
 20
-10113.75
  1
900
 40
300.0
 50
90.0
 72
     5
 11
-2807.5
 21
-9626.25
  0
ENDBLK
  0
BLOCK
  2
*DIM_0071
 70
    65
 10
0.0
 20
0.0
  0
LINE
  8
Éíû@
 10
-3369.4625
 20
-2369.04575
 11
-2769.4625
 21
-2369.04575
  0
LINE
  8
Éíû@
 10
-2769.4625
 20
-8369.04575
 11
-2769.4625
 21
-2369.04575
  0
POINT
  8
Éíû@
 10
-2769.4625
 20
-2369.04575
  0
TEXT
  7
TextStyle03
  8
Éíû@
  6
CONTINUOUS
 10
-2807.5
 20
-5782.5
  1
1,800
 40
300.0
 50
90.0
 72
     5
 11
-2807.5
 21
-4957.5
  0
ENDBLK
  0
BLOCK
  2
*GRP_0072
 70
    65
 10
0.0
 20
0.0
  0
LINE
  8
┌▓È4
  6
CONTINUOUS
 10
-4145.293
 20
13286.9035
 11
-4145.293
 21
13288.57
  0
LINE
  8
┌▓È4
  6
CONTINUOUS
 10
-4145.293
 20
13288.57
 11
-4145.293
 21
13291.9035
  0
LINE
  8
┌▓È4
  6
CONTINUOUS
 10
-4145.293
 20
13291.9035
 11
-4143.62625
 21
13293.57
  0
LINE
  8
┌▓È4
  6
CONTINUOUS
 10
-4143.62625
 20
13293.57
 11
-4141.9595
 21
13295.23675
  0
LINE
  8
┌▓È4
  6
CONTINUOUS
 10
-4141.9595
 20
13295.23675
 11
-4140.293
 21
13296.9035
  0
LINE
  8
┌▓È4
  6
CONTINUOUS
 10
-4140.293
 20
13296.9035
 11
-4138.62625
 21
13298.57
  0
LINE
  8
┌▓È4
  6
CONTINUOUS
 10
-4138.62625
 20
13298.57
 11
-4136.9595
 21
13300.23675
  0
LINE
  8
┌▓È4
  6
CONTINUOUS
 10
-4136.9595
 20
13300.23675
 11
-4133.62625
 21
13300.23675
  0
LINE
  8
┌▓È4
  6
CONTINUOUS
 10
-4133.62625
 20
13300.23675
 11
-4131.9595
 21
13300.23675
  0
LINE
  8
┌▓È4
  6
CONTINUOUS
 10
-4131.9595
 20
13300.23675
 11
-4130.293
 21
13300.23675
  0
LINE
  8
┌▓È4
  6
CONTINUOUS
 10
-4130.293
 20
13300.23675
 11
-4126.9595
 21
13300.23675
  0
LINE
  8
┌▓È4
  6
CONTINUOUS
 10
-4126.9595
 20
13300.23675
 11
-4125.293
 21
13298.57
  0
LINE
  8
┌▓È4
  6
CONTINUOUS
 10
-4125.293
 20
13298.57
 11
-4123.62625
 21
13296.9035
  0
LINE
  8
┌▓È4
  6
CONTINUOUS
 10
-4123.62625
 20
13296.9035
 11
-4121.9595
 21
13295.23675
  0
LINE
  8
┌▓È4
  6
CONTINUOUS
 10
-4121.9595
 20
13295.23675
 11
-4120.293
 21
13293.57
  0
LINE
  8
┌▓È4
  6
CONTINUOUS
 10
-4120.293
 20
13293.57
 11
-4118.62625
 21
13291.9035
  0
LINE
  8
┌▓È4
  6
CONTINUOUS
 10
-4118.62625
 20
13291.9035
 11
-4118.62625
 21
13288.57
  0
LINE
  8
┌▓È4
  6
CONTINUOUS
 10
-4118.62625
 20
13288.57
 11
-4118.62625
 21
13286.9035
  0
LINE
  8
┌▓È4
  6
CONTINUOUS
 10
-4118.62625
 20
13286.9035
 11
-4118.62625
 21
13285.23675
  0
LINE
  8
┌▓È4
  6
CONTINUOUS
 10
-4118.62625
 20
13285.23675
 11
-4118.62625
 21
13281.9035
  0
LINE
  8
┌▓È4
  6
CONTINUOUS
 10
-4118.62625
 20
13281.9035
 11
-4120.293
 21
13280.23675
  0
LINE
  8
┌▓È4
  6
CONTINUOUS
 10
-4120.293
 20
13280.23675
 11
-4121.9595
 21
13278.57
  0
LINE
  8
┌▓È4
  6
CONTINUOUS
 10
-4121.9595
 20
13278.57
 11
-4123.62625
 21
13276.9035
  0
LINE
  8
┌▓È4
  6
CONTINUOUS
 10
-4123.62625
 20
13276.9035
 11
-4125.293
 21
13275.23675
  0
LINE
  8
┌▓È4
  6
CONTINUOUS
 10
-4125.293
 20
13275.23675
 11
-4126.9595
 21
13273.57
  0
LINE
  8
┌▓È4
  6
CONTINUOUS
 10
-4126.9595
 20
13273.57
 11
-4130.293
 21
13273.57
  0
LINE
  8
┌▓È4
  6
CONTINUOUS
 10
-4130.293
 20
13273.57
 11
-4131.9595
 21
13273.57
  0
LINE
  8
┌▓È4
  6
CONTINUOUS
 10
-4131.9595
 20
13273.57
 11
-4133.62625
 21
13273.57
  0
LINE
  8
┌▓È4
  6
CONTINUOUS
 10
-4133.62625
 20
13273.57
 11
-4136.9595
 21
13273.57
  0
LINE
  8
┌▓È4
  6
CONTINUOUS
 10
-4136.9595
 20
13273.57
 11
-4138.62625
 21
13275.23675
  0
LINE
  8
┌▓È4
  6
CONTINUOUS
 10
-4138.62625
 20
13275.23675
 11
-4140.293
 21
13276.9035
  0
LINE
  8
┌▓È4
  6
CONTINUOUS
 10
-4140.293
 20
13276.9035
 11
-4141.9595
 21
13278.57
  0
LINE
  8
┌▓È4
  6
CONTINUOUS
 10
-4141.9595
 20
13278.57
 11
-4143.62625
 21
13280.23675
  0
LINE
  8
┌▓È4
  6
CONTINUOUS
 10
-4143.62625
 20
13280.23675
 11
-4145.293
 21
13281.9035
  0
LINE
  8
┌▓È4
  6
CONTINUOUS
 10
-4145.293
 20
13281.9035
 11
-4145.293
 21
13285.23675
  0
LINE
  8
┌▓È4
  6
CONTINUOUS
 10
-4145.293
 20
13285.23675
 11
-4145.293
 21
13286.9035
  0
ENDBLK
  0
BLOCK
  2
*GRP_0073
 70
    65
 10
0.0
 20
0.0
  0
LINE
  8
┌▓È4
  6
CONTINUOUS
 10
-4145.293
 20
13120.23675
 11
-4145.293
 21
13121.9035
  0
LINE
  8
┌▓È4
  6
CONTINUOUS
 10
-4145.293
 20
13121.9035
 11
-4145.293
 21
13125.23675
  0
LINE
  8
┌▓È4
  6
CONTINUOUS
 10
-4145.293
 20
13125.23675
 11
-4143.62625
 21
13126.9035
  0
LINE
  8
┌▓È4
  6
CONTINUOUS
 10
-4143.62625
 20
13126.9035
 11
-4141.9595
 21
13128.57
  0
LINE
  8
┌▓È4
  6
CONTINUOUS
 10
-4141.9595
 20
13128.57
 11
-4140.293
 21
13130.23675
  0
LINE
  8
┌▓È4
  6
CONTINUOUS
 10
-4140.293
 20
13130.23675
 11
-4138.62625
 21
13131.9035
  0
LINE
  8
┌▓È4
  6
CONTINUOUS
 10
-4138.62625
 20
13131.9035
 11
-4136.9595
 21
13133.57
  0
LINE
  8
┌▓È4
  6
CONTINUOUS
 10
-4136.9595
 20
13133.57
 11
-4133.62625
 21
13133.57
  0
LINE
  8
┌▓È4
  6
CONTINUOUS
 10
-4133.62625
 20
13133.57
 11
-4131.9595
 21
13133.57
  0
LINE
  8
┌▓È4
  6
CONTINUOUS
 10
-4131.9595
 20
13133.57
 11
-4130.293
 21
13133.57
  0
LINE
  8
┌▓È4
  6
CONTINUOUS
 10
-4130.293
 20
13133.57
 11
-4126.9595
 21
13133.57
  0
LINE
  8
┌▓È4
  6
CONTINUOUS
 10
-4126.9595
 20
13133.57
 11
-4125.293
 21
13131.9035
  0
LINE
  8
┌▓È4
  6
CONTINUOUS
 10
-4125.293
 20
13131.9035
 11
-4123.62625
 21
13130.23675
  0
LINE
  8
┌▓È4
  6
CONTINUOUS
 10
-4123.62625
 20
13130.23675
 11
-4121.9595
 21
13128.57
  0
LINE
  8
┌▓È4
  6
CONTINUOUS
 10
-4121.9595
 20
13128.57
 11
-4120.293
 21
13126.9035
  0
LINE
  8
┌▓È4
  6
CONTINUOUS
 10
-4120.293
 20
13126.9035
 11
-4118.62625
 21
13125.23675
  0
LINE
  8
┌▓È4
  6
CONTINUOUS
 10
-4118.62625
 20
13125.23675
 11
-4118.62625
 21
13121.9035
  0
LINE
  8
┌▓È4
  6
CONTINUOUS
 10
-4118.62625
 20
13121.9035
 11
-4118.62625
 21
13120.23675
  0
LINE
  8
┌▓È4
  6
CONTINUOUS
 10
-4118.62625
 20
13120.23675
 11
-4118.62625
 21
13118.57
  0
LINE
  8
┌▓È4
  6
CONTINUOUS
 10
-4118.62625
 20
13118.57
 11
-4118.62625
 21
13115.23675
  0
LINE
  8
┌▓È4
  6
CONTINUOUS
 10
-4118.62625
 20
13115.23675
 11
-4120.293
 21
13113.57
  0
LINE
  8
┌▓È4
  6
CONTINUOUS
 10
-4120.293
 20
13113.57
 11
-4121.9595
 21
13111.9035
  0
LINE
  8
┌▓È4
  6
CONTINUOUS
 10
-4121.9595
 20
13111.9035
 11
-4123.62625
 21
13110.23675
  0
LINE
  8
┌▓È4
  6
CONTINUOUS
 10
-4123.62625
 20
13110.23675
 11
-4125.293
 21
13108.57
  0
LINE
  8
┌▓È4
  6
CONTINUOUS
 10
-4125.293
 20
13108.57
 11
-4126.9595
 21
13106.9035
  0
LINE
  8
┌▓È4
  6
CONTINUOUS
 10
-4126.9595
 20
13106.9035
 11
-4130.293
 21
13106.9035
  0
LINE
  8
┌▓È4
  6
CONTINUOUS
 10
-4130.293
 20
13106.9035
 11
-4131.9595
 21
13106.9035
  0
LINE
  8
┌▓È4
  6
CONTINUOUS
 10
-4131.9595
 20
13106.9035
 11
-4133.62625
 21
13106.9035
  0
LINE
  8
┌▓È4
  6
CONTINUOUS
 10
-4133.62625
 20
13106.9035
 11
-4136.9595
 21
13106.9035
  0
LINE
  8
┌▓È4
  6
CONTINUOUS
 10
-4136.9595
 20
13106.9035
 11
-4138.62625
 21
13108.57
  0
LINE
  8
┌▓È4
  6
CONTINUOUS
 10
-4138.62625
 20
13108.57
 11
-4140.293
 21
13110.23675
  0
LINE
  8
┌▓È4
  6
CONTINUOUS
 10
-4140.293
 20
13110.23675
 11
-4141.9595
 21
13111.9035
  0
LINE
  8
┌▓È4
  6
CONTINUOUS
 10
-4141.9595
 20
13111.9035
 11
-4143.62625
 21
13113.57
  0
LINE
  8
┌▓È4
  6
CONTINUOUS
 10
-4143.62625
 20
13113.57
 11
-4145.293
 21
13115.23675
  0
LINE
  8
┌▓È4
  6
CONTINUOUS
 10
-4145.293
 20
13115.23675
 11
-4145.293
 21
13118.57
  0
LINE
  8
┌▓È4
  6
CONTINUOUS
 10
-4145.293
 20
13118.57
 11
-4145.293
 21
13120.23675
  0
ENDBLK
  0
BLOCK
  2
*GRP_0074
 70
    65
 10
0.0
 20
0.0
  0
LINE
  8
┌▓È4
  6
CONTINUOUS
 10
-4145.293
 20
13453.57
 11
-4145.293
 21
13455.23675
  0
LINE
  8
┌▓È4
  6
CONTINUOUS
 10
-4145.293
 20
13455.23675
 11
-4145.293
 21
13458.57
  0
LINE
  8
┌▓È4
  6
CONTINUOUS
 10
-4145.293
 20
13458.57
 11
-4143.62625
 21
13460.23675
  0
LINE
  8
┌▓È4
  6
CONTINUOUS
 10
-4143.62625
 20
13460.23675
 11
-4141.9595
 21
13461.9035
  0
LINE
  8
┌▓È4
  6
CONTINUOUS
 10
-4141.9595
 20
13461.9035
 11
-4140.293
 21
13463.57
  0
LINE
  8
┌▓È4
  6
CONTINUOUS
 10
-4140.293
 20
13463.57
 11
-4138.62625
 21
13465.23675
  0
LINE
  8
┌▓È4
  6
CONTINUOUS
 10
-4138.62625
 20
13465.23675
 11
-4136.9595
 21
13466.9035
  0
LINE
  8
┌▓È4
  6
CONTINUOUS
 10
-4136.9595
 20
13466.9035
 11
-4133.62625
 21
13466.9035
  0
LINE
  8
┌▓È4
  6
CONTINUOUS
 10
-4133.62625
 20
13466.9035
 11
-4131.9595
 21
13466.9035
  0
LINE
  8
┌▓È4
  6
CONTINUOUS
 10
-4131.9595
 20
13466.9035
 11
-4130.293
 21
13466.9035
  0
LINE
  8
┌▓È4
  6
CONTINUOUS
 10
-4130.293
 20
13466.9035
 11
-4126.9595
 21
13466.9035
  0
LINE
  8
┌▓È4
  6
CONTINUOUS
 10
-4126.9595
 20
13466.9035
 11
-4125.293
 21
13465.23675
  0
LINE
  8
┌▓È4
  6
CONTINUOUS
 10
-4125.293
 20
13465.23675
 11
-4123.62625
 21
13463.57
  0
LINE
  8
┌▓È4
  6
CONTINUOUS
 10
-4123.62625
 20
13463.57
 11
-4121.9595
 21
13461.9035
  0
LINE
  8
┌▓È4
  6
CONTINUOUS
 10
-4121.9595
 20
13461.9035
 11
-4120.293
 21
13460.23675
  0
LINE
  8
┌▓È4
  6
CONTINUOUS
 10
-4120.293
 20
13460.23675
 11
-4118.62625
 21
13458.57
  0
LINE
  8
┌▓È4
  6
CONTINUOUS
 10
-4118.62625
 20
13458.57
 11
-4118.62625
 21
13455.23675
  0
LINE
  8
┌▓È4
  6
CONTINUOUS
 10
-4118.62625
 20
13455.23675
 11
-4118.62625
 21
13453.57
  0
LINE
  8
┌▓È4
  6
CONTINUOUS
 10
-4118.62625
 20
13453.57
 11
-4118.62625
 21
13451.9035
  0
LINE
  8
┌▓È4
  6
CONTINUOUS
 10
-4118.62625
 20
13451.9035
 11
-4118.62625
 21
13448.57
  0
LINE
  8
┌▓È4
  6
CONTINUOUS
 10
-4118.62625
 20
13448.57
 11
-4120.293
 21
13446.9035
  0
LINE
  8
┌▓È4
  6
CONTINUOUS
 10
-4120.293
 20
13446.9035
 11
-4121.9595
 21
13445.23675
  0
LINE
  8
┌▓È4
  6
CONTINUOUS
 10
-4121.9595
 20
13445.23675
 11
-4123.62625
 21
13443.57
  0
LINE
  8
┌▓È4
  6
CONTINUOUS
 10
-4123.62625
 20
13443.57
 11
-4125.293
 21
13441.9035
  0
LINE
  8
┌▓È4
  6
CONTINUOUS
 10
-4125.293
 20
13441.9035
 11
-4126.9595
 21
13440.23675
  0
LINE
  8
┌▓È4
  6
CONTINUOUS
 10
-4126.9595
 20
13440.23675
 11
-4130.293
 21
13440.23675
  0
LINE
  8
┌▓È4
  6
CONTINUOUS
 10
-4130.293
 20
13440.23675
 11
-4131.9595
 21
13440.23675
  0
LINE
  8
┌▓È4
  6
CONTINUOUS
 10
-4131.9595
 20
13440.23675
 11
-4133.62625
 21
13440.23675
  0
LINE
  8
┌▓È4
  6
CONTINUOUS
 10
-4133.62625
 20
13440.23675
 11
-4136.9595
 21
13440.23675
  0
LINE
  8
┌▓È4
  6
CONTINUOUS
 10
-4136.9595
 20
13440.23675
 11
-4138.62625
 21
13441.9035
  0
LINE
  8
┌▓È4
  6
CONTINUOUS
 10
-4138.62625
 20
13441.9035
 11
-4140.293
 21
13443.57
  0
LINE
  8
┌▓È4
  6
CONTINUOUS
 10
-4140.293
 20
13443.57
 11
-4141.9595
 21
13445.23675
  0
LINE
  8
┌▓È4
  6
CONTINUOUS
 10
-4141.9595
 20
13445.23675
 11
-4143.62625
 21
13446.9035
  0
LINE
  8
┌▓È4
  6
CONTINUOUS
 10
-4143.62625
 20
13446.9035
 11
-4145.293
 21
13448.57
  0
LINE
  8
┌▓È4
  6
CONTINUOUS
 10
-4145.293
 20
13448.57
 11
-4145.293
 21
13451.9035
  0
LINE
  8
┌▓È4
  6
CONTINUOUS
 10
-4145.293
 20
13451.9035
 11
-4145.293
 21
13453.57
  0
ENDBLK
  0
BLOCK
  2
*GRP_0075
 70
    65
 10
0.0
 20
0.0
  0
LINE
  8
┌▓È4
  6
CONTINUOUS
 10
-4855.29275
 20
13286.9035
 11
-4855.29275
 21
13288.57
  0
LINE
  8
┌▓È4
  6
CONTINUOUS
 10
-4855.29275
 20
13288.57
 11
-4855.29275
 21
13291.9035
  0
LINE
  8
┌▓È4
  6
CONTINUOUS
 10
-4855.29275
 20
13291.9035
 11
-4853.626
 21
13293.57
  0
LINE
  8
┌▓È4
  6
CONTINUOUS
 10
-4853.626
 20
13293.57
 11
-4851.9595
 21
13295.23675
  0
LINE
  8
┌▓È4
  6
CONTINUOUS
 10
-4851.9595
 20
13295.23675
 11
-4850.29275
 21
13296.9035
  0
LINE
  8
┌▓È4
  6
CONTINUOUS
 10
-4850.29275
 20
13296.9035
 11
-4848.626
 21
13298.57
  0
LINE
  8
┌▓È4
  6
CONTINUOUS
 10
-4848.626
 20
13298.57
 11
-4846.9595
 21
13300.23675
  0
LINE
  8
┌▓È4
  6
CONTINUOUS
 10
-4846.9595
 20
13300.23675
 11
-4843.626
 21
13300.23675
  0
LINE
  8
┌▓È4
  6
CONTINUOUS
 10
-4843.626
 20
13300.23675
 11
-4841.9595
 21
13300.23675
  0
LINE
  8
┌▓È4
  6
CONTINUOUS
 10
-4841.9595
 20
13300.23675
 11
-4840.29275
 21
13300.23675
  0
LINE
  8
┌▓È4
  6
CONTINUOUS
 10
-4840.29275
 20
13300.23675
 11
-4836.9595
 21
13300.23675
  0
LINE
  8
┌▓È4
  6
CONTINUOUS
 10
-4836.9595
 20
13300.23675
 11
-4835.29275
 21
13298.57
  0
LINE
  8
┌▓È4
  6
CONTINUOUS
 10
-4835.29275
 20
13298.57
 11
-4833.626
 21
13296.9035
  0
LINE
  8
┌▓È4
  6
CONTINUOUS
 10
-4833.626
 20
13296.9035
 11
-4831.9595
 21
13295.23675
  0
LINE
  8
┌▓È4
  6
CONTINUOUS
 10
-4831.9595
 20
13295.23675
 11
-4830.29275
 21
13293.57
  0
LINE
  8
┌▓È4
  6
CONTINUOUS
 10
-4830.29275
 20
13293.57
 11
-4828.626
 21
13291.9035
  0
LINE
  8
┌▓È4
  6
CONTINUOUS
 10
-4828.626
 20
13291.9035
 11
-4828.626
 21
13288.57
  0
LINE
  8
┌▓È4
  6
CONTINUOUS
 10
-4828.626
 20
13288.57
 11
-4828.626
 21
13286.9035
  0
LINE
  8
┌▓È4
  6
CONTINUOUS
 10
-4828.626
 20
13286.9035
 11
-4828.626
 21
13285.23675
  0
LINE
  8
┌▓È4
  6
CONTINUOUS
 10
-4828.626
 20
13285.23675
 11
-4828.626
 21
13281.9035
  0
LINE
  8
┌▓È4
  6
CONTINUOUS
 10
-4828.626
 20
13281.9035
 11
-4830.29275
 21
13280.23675
  0
LINE
  8
┌▓È4
  6
CONTINUOUS
 10
-4830.29275
 20
13280.23675
 11
-4831.9595
 21
13278.57
  0
LINE
  8
┌▓È4
  6
CONTINUOUS
 10
-4831.9595
 20
13278.57
 11
-4833.626
 21
13276.9035
  0
LINE
  8
┌▓È4
  6
CONTINUOUS
 10
-4833.626
 20
13276.9035
 11
-4835.29275
 21
13275.23675
  0
LINE
  8
┌▓È4
  6
CONTINUOUS
 10
-4835.29275
 20
13275.23675
 11
-4836.9595
 21
13273.57
  0
LINE
  8
┌▓È4
  6
CONTINUOUS
 10
-4836.9595
 20
13273.57
 11
-4840.29275
 21
13273.57
  0
LINE
  8
┌▓È4
  6
CONTINUOUS
 10
-4840.29275
 20
13273.57
 11
-4841.9595
 21
13273.57
  0
LINE
  8
┌▓È4
  6
CONTINUOUS
 10
-4841.9595
 20
13273.57
 11
-4843.626
 21
13273.57
  0
LINE
  8
┌▓È4
  6
CONTINUOUS
 10
-4843.626
 20
13273.57
 11
-4846.9595
 21
13273.57
  0
LINE
  8
┌▓È4
  6
CONTINUOUS
 10
-4846.9595
 20
13273.57
 11
-4848.626
 21
13275.23675
  0
LINE
  8
┌▓È4
  6
CONTINUOUS
 10
-4848.626
 20
13275.23675
 11
-4850.29275
 21
13276.9035
  0
LINE
  8
┌▓È4
  6
CONTINUOUS
 10
-4850.29275
 20
13276.9035
 11
-4851.9595
 21
13278.57
  0
LINE
  8
┌▓È4
  6
CONTINUOUS
 10
-4851.9595
 20
13278.57
 11
-4853.626
 21
13280.23675
  0
LINE
  8
┌▓È4
  6
CONTINUOUS
 10
-4853.626
 20
13280.23675
 11
-4855.29275
 21
13281.9035
  0
LINE
  8
┌▓È4
  6
CONTINUOUS
 10
-4855.29275
 20
13281.9035
 11
-4855.29275
 21
13285.23675
  0
LINE
  8
┌▓È4
  6
CONTINUOUS
 10
-4855.29275
 20
13285.23675
 11
-4855.29275
 21
13286.9035
  0
ENDBLK
  0
BLOCK
  2
*GRP_0076
 70
    65
 10
0.0
 20
0.0
  0
LINE
  8
┌▓È4
  6
CONTINUOUS
 10
-4855.29275
 20
13120.23675
 11
-4855.29275
 21
13121.9035
  0
LINE
  8
┌▓È4
  6
CONTINUOUS
 10
-4855.29275
 20
13121.9035
 11
-4855.29275
 21
13125.23675
  0
LINE
  8
┌▓È4
  6
CONTINUOUS
 10
-4855.29275
 20
13125.23675
 11
-4853.626
 21
13126.9035
  0
LINE
  8
┌▓È4
  6
CONTINUOUS
 10
-4853.626
 20
13126.9035
 11
-4851.9595
 21
13128.57
  0
LINE
  8
┌▓È4
  6
CONTINUOUS
 10
-4851.9595
 20
13128.57
 11
-4850.29275
 21
13130.23675
  0
LINE
  8
┌▓È4
  6
CONTINUOUS
 10
-4850.29275
 20
13130.23675
 11
-4848.626
 21
13131.9035
  0
LINE
  8
┌▓È4
  6
CONTINUOUS
 10
-4848.626
 20
13131.9035
 11
-4846.9595
 21
13133.57
  0
LINE
  8
┌▓È4
  6
CONTINUOUS
 10
-4846.9595
 20
13133.57
 11
-4843.626
 21
13133.57
  0
LINE
  8
┌▓È4
  6
CONTINUOUS
 10
-4843.626
 20
13133.57
 11
-4841.9595
 21
13133.57
  0
LINE
  8
┌▓È4
  6
CONTINUOUS
 10
-4841.9595
 20
13133.57
 11
-4840.29275
 21
13133.57
  0
LINE
  8
┌▓È4
  6
CONTINUOUS
 10
-4840.29275
 20
13133.57
 11
-4836.9595
 21
13133.57
  0
LINE
  8
┌▓È4
  6
CONTINUOUS
 10
-4836.9595
 20
13133.57
 11
-4835.29275
 21
13131.9035
  0
LINE
  8
┌▓È4
  6
CONTINUOUS
 10
-4835.29275
 20
13131.9035
 11
-4833.626
 21
13130.23675
  0
LINE
  8
┌▓È4
  6
CONTINUOUS
 10
-4833.626
 20
13130.23675
 11
-4831.9595
 21
13128.57
  0
LINE
  8
┌▓È4
  6
CONTINUOUS
 10
-4831.9595
 20
13128.57
 11
-4830.29275
 21
13126.9035
  0
LINE
  8
┌▓È4
  6
CONTINUOUS
 10
-4830.29275
 20
13126.9035
 11
-4828.626
 21
13125.23675
  0
LINE
  8
┌▓È4
  6
CONTINUOUS
 10
-4828.626
 20
13125.23675
 11
-4828.626
 21
13121.9035
  0
LINE
  8
┌▓È4
  6
CONTINUOUS
 10
-4828.626
 20
13121.9035
 11
-4828.626
 21
13120.23675
  0
LINE
  8
┌▓È4
  6
CONTINUOUS
 10
-4828.626
 20
13120.23675
 11
-4828.626
 21
13118.57
  0
LINE
  8
┌▓È4
  6
CONTINUOUS
 10
-4828.626
 20
13118.57
 11
-4828.626
 21
13115.23675
  0
LINE
  8
┌▓È4
  6
CONTINUOUS
 10
-4828.626
 20
13115.23675
 11
-4830.29275
 21
13113.57
  0
LINE
  8
┌▓È4
  6
CONTINUOUS
 10
-4830.29275
 20
13113.57
 11
-4831.9595
 21
13111.9035
  0
LINE
  8
┌▓È4
  6
CONTINUOUS
 10
-4831.9595
 20
13111.9035
 11
-4833.626
 21
13110.23675
  0
LINE
  8
┌▓È4
  6
CONTINUOUS
 10
-4833.626
 20
13110.23675
 11
-4835.29275
 21
13108.57
  0
LINE
  8
┌▓È4
  6
CONTINUOUS
 10
-4835.29275
 20
13108.57
 11
-4836.9595
 21
13106.9035
  0
LINE
  8
┌▓È4
  6
CONTINUOUS
 10
-4836.9595
 20
13106.9035
 11
-4840.29275
 21
13106.9035
  0
LINE
  8
┌▓È4
  6
CONTINUOUS
 10
-4840.29275
 20
13106.9035
 11
-4841.9595
 21
13106.9035
  0
LINE
  8
┌▓È4
  6
CONTINUOUS
 10
-4841.9595
 20
13106.9035
 11
-4843.626
 21
13106.9035
  0
LINE
  8
┌▓È4
  6
CONTINUOUS
 10
-4843.626
 20
13106.9035
 11
-4846.9595
 21
13106.9035
  0
LINE
  8
┌▓È4
  6
CONTINUOUS
 10
-4846.9595
 20
13106.9035
 11
-4848.626
 21
13108.57
  0
LINE
  8
┌▓È4
  6
CONTINUOUS
 10
-4848.626
 20
13108.57
 11
-4850.29275
 21
13110.23675
  0
LINE
  8
┌▓È4
  6
CONTINUOUS
 10
-4850.29275
 20
13110.23675
 11
-4851.9595
 21
13111.9035
  0
LINE
  8
┌▓È4
  6
CONTINUOUS
 10
-4851.9595
 20
13111.9035
 11
-4853.626
 21
13113.57
  0
LINE
  8
┌▓È4
  6
CONTINUOUS
 10
-4853.626
 20
13113.57
 11
-4855.29275
 21
13115.23675
  0
LINE
  8
┌▓È4
  6
CONTINUOUS
 10
-4855.29275
 20
13115.23675
 11
-4855.29275
 21
13118.57
  0
LINE
  8
┌▓È4
  6
CONTINUOUS
 10
-4855.29275
 20
13118.57
 11
-4855.29275
 21
13120.23675
  0
ENDBLK
  0
BLOCK
  2
*GRP_0077
 70
    65
 10
0.0
 20
0.0
  0
LINE
  8
┌▓È4
  6
CONTINUOUS
 10
-4855.29275
 20
13453.57
 11
-4855.29275
 21
13455.23675
  0
LINE
  8
┌▓È4
  6
CONTINUOUS
 10
-4855.29275
 20
13455.23675
 11
-4855.29275
 21
13458.57
  0
LINE
  8
┌▓È4
  6
CONTINUOUS
 10
-4855.29275
 20
13458.57
 11
-4853.626
 21
13460.23675
  0
LINE
  8
┌▓È4
  6
CONTINUOUS
 10
-4853.626
 20
13460.23675
 11
-4851.9595
 21
13461.9035
  0
LINE
  8
┌▓È4
  6
CONTINUOUS
 10
-4851.9595
 20
13461.9035
 11
-4850.29275
 21
13463.57
  0
LINE
  8
┌▓È4
  6
CONTINUOUS
 10
-4850.29275
 20
13463.57
 11
-4848.626
 21
13465.23675
  0
LINE
  8
┌▓È4
  6
CONTINUOUS
 10
-4848.626
 20
13465.23675
 11
-4846.9595
 21
13466.9035
  0
LINE
  8
┌▓È4
  6
CONTINUOUS
 10
-4846.9595
 20
13466.9035
 11
-4843.626
 21
13466.9035
  0
LINE
  8
┌▓È4
  6
CONTINUOUS
 10
-4843.626
 20
13466.9035
 11
-4841.9595
 21
13466.9035
  0
LINE
  8
┌▓È4
  6
CONTINUOUS
 10
-4841.9595
 20
13466.9035
 11
-4840.29275
 21
13466.9035
  0
LINE
  8
┌▓È4
  6
CONTINUOUS
 10
-4840.29275
 20
13466.9035
 11
-4836.9595
 21
13466.9035
  0
LINE
  8
┌▓È4
  6
CONTINUOUS
 10
-4836.9595
 20
13466.9035
 11
-4835.29275
 21
13465.23675
  0
LINE
  8
┌▓È4
  6
CONTINUOUS
 10
-4835.29275
 20
13465.23675
 11
-4833.626
 21
13463.57
  0
LINE
  8
┌▓È4
  6
CONTINUOUS
 10
-4833.626
 20
13463.57
 11
-4831.9595
 21
13461.9035
  0
LINE
  8
┌▓È4
  6
CONTINUOUS
 10
-4831.9595
 20
13461.9035
 11
-4830.29275
 21
13460.23675
  0
LINE
  8
┌▓È4
  6
CONTINUOUS
 10
-4830.29275
 20
13460.23675
 11
-4828.626
 21
13458.57
  0
LINE
  8
┌▓È4
  6
CONTINUOUS
 10
-4828.626
 20
13458.57
 11
-4828.626
 21
13455.23675
  0
LINE
  8
┌▓È4
  6
CONTINUOUS
 10
-4828.626
 20
13455.23675
 11
-4828.626
 21
13453.57
  0
LINE
  8
┌▓È4
  6
CONTINUOUS
 10
-4828.626
 20
13453.57
 11
-4828.626
 21
13451.9035
  0
LINE
  8
┌▓È4
  6
CONTINUOUS
 10
-4828.626
 20
13451.9035
 11
-4828.626
 21
13448.57
  0
LINE
  8
┌▓È4
  6
CONTINUOUS
 10
-4828.626
 20
13448.57
 11
-4830.29275
 21
13446.9035
  0
LINE
  8
┌▓È4
  6
CONTINUOUS
 10
-4830.29275
 20
13446.9035
 11
-4831.9595
 21
13445.23675
  0
LINE
  8
┌▓È4
  6
CONTINUOUS
 10
-4831.9595
 20
13445.23675
 11
-4833.626
 21
13443.57
  0
LINE
  8
┌▓È4
  6
CONTINUOUS
 10
-4833.626
 20
13443.57
 11
-4835.29275
 21
13441.9035
  0
LINE
  8
┌▓È4
  6
CONTINUOUS
 10
-4835.29275
 20
13441.9035
 11
-4836.9595
 21
13440.23675
  0
LINE
  8
┌▓È4
  6
CONTINUOUS
 10
-4836.9595
 20
13440.23675
 11
-4840.29275
 21
13440.23675
  0
LINE
  8
┌▓È4
  6
CONTINUOUS
 10
-4840.29275
 20
13440.23675
 11
-4841.9595
 21
13440.23675
  0
LINE
  8
┌▓È4
  6
CONTINUOUS
 10
-4841.9595
 20
13440.23675
 11
-4843.626
 21
13440.23675
  0
LINE
  8
┌▓È4
  6
CONTINUOUS
 10
-4843.626
 20
13440.23675
 11
-4846.9595
 21
13440.23675
  0
LINE
  8
┌▓È4
  6
CONTINUOUS
 10
-4846.9595
 20
13440.23675
 11
-4848.626
 21
13441.9035
  0
LINE
  8
┌▓È4
  6
CONTINUOUS
 10
-4848.626
 20
13441.9035
 11
-4850.29275
 21
13443.57
  0
LINE
  8
┌▓È4
  6
CONTINUOUS
 10
-4850.29275
 20
13443.57
 11
-4851.9595
 21
13445.23675
  0
LINE
  8
┌▓È4
  6
CONTINUOUS
 10
-4851.9595
 20
13445.23675
 11
-4853.626
 21
13446.9035
  0
LINE
  8
┌▓È4
  6
CONTINUOUS
 10
-4853.626
 20
13446.9035
 11
-4855.29275
 21
13448.57
  0
LINE
  8
┌▓È4
  6
CONTINUOUS
 10
-4855.29275
 20
13448.57
 11
-4855.29275
 21
13451.9035
  0
LINE
  8
┌▓È4
  6
CONTINUOUS
 10
-4855.29275
 20
13451.9035
 11
-4855.29275
 21
13453.57
  0
ENDBLK
  0
BLOCK
  2
*GRP_0078
 70
    65
 10
0.0
 20
0.0
  0
POINT
  8
Éíû@
 10
-4855.29275
 20
13120.23675
  0
POLYLINE
  8
Éíû@
 66
     1
  0
VERTEX
  8
Éíû@
 10
-4855.29275
 20
13120.23675
  0
VERTEX
  8
Éíû@
 10
-5019.40175
 20
13404.48175
  0
VERTEX
  8
Éíû@
 10
-5414.56025
 20
13404.48175
  0
SEQEND
  0
ENDBLK
  0
BLOCK
  2
*GRP_0079
 70
    65
 10
0.0
 20
0.0
  0
POINT
  8
Éíû@
 10
-5056.68775
 20
13948.5415
  0
POLYLINE
  8
Éíû@
 66
     1
  0
VERTEX
  8
Éíû@
 10
-5056.68775
 20
13948.5415
  0
VERTEX
  8
Éíû@
 10
-5220.79675
 20
14232.7865
  0
VERTEX
  8
Éíû@
 10
-5404.77975
 20
14232.7865
  0
SEQEND
  0
ENDBLK
  0
BLOCK
  2
*DIM_0080
 70
    65
 10
0.0
 20
0.0
  0
LINE
  8
Éíû@
 10
-5065.8945
 20
15333.43075
 11
-5065.8945
 21
15933.43075
  0
LINE
  8
Éíû@
 10
-3899.228
 20
15333.43075
 11
-3899.228
 21
15933.43075
  0
LINE
  8
Éíû@
 10
-5065.8945
 20
15933.43075
 11
-3899.228
 21
15933.43075
  0
POINT
  8
Éíû@
 10
-5065.8945
 20
15933.43075
  0
POINT
  8
Éíû@
 10
-3899.228
 20
15933.43075
  0
TEXT
  7
TextStyle03
  8
Éíû@
  6
CONTINUOUS
 10
-4731.25
 20
15970.0
  1
350
 40
300.0
 72
     5
 11
-4243.75
 21
15970.0
  0
ENDBLK
  0
BLOCK
  2
*DIM_0081
 70
    65
 10
0.0
 20
0.0
  0
LINE
  8
Éíû@
 10
-2569.14875
 20
11840.23675
 11
-1969.14875
 21
11840.23675
  0
LINE
  8
Éíû@
 10
-2569.14875
 20
10840.23675
 11
-1969.14875
 21
10840.23675
  0
LINE
  8
Éíû@
 10
-1969.14875
 20
11840.23675
 11
-1969.14875
 21
10840.23675
  0
POINT
  8
Éíû@
 10
-1969.14875
 20
11840.23675
  0
POINT
  8
Éíû@
 10
-1969.14875
 20
10840.23675
  0
TEXT
  7
TextStyle03
  8
Éíû@
  6
CONTINUOUS
 10
-2010.0
 20
11096.25
  1
300
 40
300.0
 50
90.0
 72
     5
 11
-2010.0
 21
11583.75
  0
ENDBLK
  0
BLOCK
  2
*DIM_0082
 70
    65
 10
0.0
 20
0.0
  0
LINE
  8
Éíû@
 10
-2569.14875
 20
5840.23675
 11
-1969.14875
 21
5840.23675
  0
LINE
  8
Éíû@
 10
-1969.14875
 20
10840.23675
 11
-1969.14875
 21
5840.23675
  0
POINT
  8
Éíû@
 10
-1969.14875
 20
5840.23675
  0
TEXT
  7
TextStyle03
  8
Éíû@
  6
CONTINUOUS
 10
-2010.0
 20
7927.5
  1
1,500
 40
300.0
 50
90.0
 72
     5
 11
-2010.0
 21
8752.5
  0
ENDBLK
  0
BLOCK
  2
*DIM_0083
 70
    65
 10
0.0
 20
0.0
  0
LINE
  8
Éíû@
 10
-1969.14875
 20
5840.23675
 11
-1369.14875
 21
5840.23675
  0
LINE
  8
Éíû@
 10
-1969.14875
 20
14840.23675
 11
-1369.14875
 21
14840.23675
  0
LINE
  8
Éíû@
 10
-1369.14875
 20
5840.23675
 11
-1369.14875
 21
14840.23675
  0
POINT
  8
Éíû@
 10
-1369.14875
 20
5840.23675
  0
POINT
  8
Éíû@
 10
-1369.14875
 20
14840.23675
  0
TEXT
  7
TextStyle03
  8
Éíû@
  6
CONTINUOUS
 10
-1410.0
 20
9927.5
  1
2,700
 40
300.0
 50
90.0
 72
     5
 11
-1410.0
 21
10752.5
  0
ENDBLK
  0
BLOCK
  2
*GRP_0084
 70
    65
 10
0.0
 20
0.0
  0
POINT
  8
Éíû@
 10
-14607.4505
 20
12043.3025
  0
POLYLINE
  8
Éíû@
 66
     1
  0
VERTEX
  8
Éíû@
 10
-14607.4505
 20
12043.3025
  0
VERTEX
  8
Éíû@
 10
-15395.8625
 20
10543.15325
  0
VERTEX
  8
Éíû@
 10
-15682.59125
 20
10543.15325
  0
SEQEND
  0
ENDBLK
  0
BLOCK
  2
*DIM_0085
 70
    65
 10
0.0
 20
0.0
  0
LINE
  8
Éíû@
 10
-10823.41725
 20
15629.284
 11
-10823.41725
 21
16229.284
  0
LINE
  8
Éíû@
 10
-15823.417
 20
15629.284
 11
-15823.417
 21
16229.284
  0
LINE
  8
Éíû@
 10
-10823.41725
 20
16229.284
 11
-15823.417
 21
16229.284
  0
POINT
  8
Éíû@
 10
-10823.41725
 20
16229.284
  0
POINT
  8
Éíû@
 10
-15823.417
 20
16229.284
  0
TEXT
  7
TextStyle03
  8
Éíû@
  6
CONTINUOUS
 10
-13405.0
 20
16265.0
  1
W
 40
300.0
 72
     5
 11
-13255.0
 21
16265.0
  0
ENDBLK
  0
BLOCK
  2
*DIM_0086
 70
    65
 10
0.0
 20
0.0
  0
LINE
  8
Éíû@
 10
-2569.14875
 20
14840.23675
 11
-1969.14875
 21
14840.23675
  0
LINE
  8
Éíû@
 10
-2569.14875
 20
11840.23675
 11
-1969.14875
 21
11840.23675
  0
LINE
  8
Éíû@
 10
-1969.14875
 20
14840.23675
 11
-1969.14875
 21
11840.23675
  0
POINT
  8
Éíû@
 10
-1969.14875
 20
14840.23675
  0
POINT
  8
Éíû@
 10
-1969.14875
 20
11840.23675
  0
TEXT
  7
TextStyle03
  8
Éíû@
  6
CONTINUOUS
 10
-2012.5
 20
13265.0
  1
H
 40
300.0
 50
90.0
 72
     5
 11
-2012.5
 21
13415.0
  0
ENDBLK
  0
BLOCK
  2
*DIM_0087
 70
    65
 10
0.0
 20
0.0
  0
LINE
  8
Éíû@
 10
-4565.89475
 20
10183.2445
 11
-4565.89475
 21
9583.2445
  0
LINE
  8
Éíû@
 10
-3899.228
 20
10183.2445
 11
-3899.228
 21
9583.2445
  0
LINE
  8
Éíû@
 10
-4565.89475
 20
9583.2445
 11
-3899.228
 21
9583.2445
  0
POINT
  8
Éíû@
 10
-4565.89475
 20
9583.2445
  0
POINT
  8
Éíû@
 10
-3899.228
 20
9583.2445
  0
TEXT
  7
TextStyle03
  8
Éíû@
  6
CONTINUOUS
 10
-4481.25
 20
9620.0
  1
200
 40
300.0
 72
     5
 11
-3993.75
 21
9620.0
  0
ENDBLK
  0
BLOCK
  2
*GRP_0088
 70
    65
 10
0.0
 20
0.0
  0
POINT
  8
Éíû@
 10
-4557.7755
 20
10770.02475
  0
POLYLINE
  8
Éíû@
 66
     1
  0
VERTEX
  8
Éíû@
 10
-4557.7755
 20
10770.02475
  0
VERTEX
  8
Éíû@
 10
-5346.1875
 20
9269.8755
  0
VERTEX
  8
Éíû@
 10
-5632.91625
 20
9269.8755
  0
SEQEND
  0
ENDBLK
  0
BLOCK
  2
*DIM_0089
 70
    65
 10
0.0
 20
0.0
  0
LINE
  8
Éíû@
 10
-24591.205
 20
15629.284
 11
-24591.205
 21
16229.284
  0
LINE
  8
Éíû@
 10
-17591.205
 20
15629.284
 11
-17591.205
 21
16229.284
  0
LINE
  8
Éíû@
 10
-24591.205
 20
16229.284
 11
-17591.205
 21
16229.284
  0
POINT
  8
Éíû@
 10
-24591.205
 20
16229.284
  0
POINT
  8
Éíû@
 10
-17591.205
 20
16229.284
  0
TEXT
  7
TextStyle03
  8
Éíû@
  6
CONTINUOUS
 10
-21507.5
 20
16265.0
  1
2,100
 40
300.0
 72
     5
 11
-20682.5
 21
16265.0
  0
ENDBLK
  0
BLOCK
  2
*DIM_0090
 70
    65
 10
0.0
 20
0.0
  0
LINE
  8
Éíû@
 10
-24591.205
 20
15029.284
 11
-24591.205
 21
15629.284
  0
LINE
  8
Éíû@
 10
-20591.205
 20
15029.284
 11
-20591.205
 21
15629.284
  0
LINE
  8
Éíû@
 10
-24591.205
 20
15629.284
 11
-20591.205
 21
15629.284
  0
POINT
  8
Éíû@
 10
-24591.205
 20
15629.284
  0
POINT
  8
Éíû@
 10
-20591.205
 20
15629.284
  0
TEXT
  7
TextStyle03
  8
Éíû@
  6
CONTINUOUS
 10
-23007.5
 20
15665.0
  1
1,200
 40
300.0
 72
     5
 11
-22182.5
 21
15665.0
  0
ENDBLK
  0
BLOCK
  2
*DIM_0091
 70
    65
 10
0.0
 20
0.0
  0
LINE
  8
Éíû@
 10
-17591.205
 20
15029.284
 11
-17591.205
 21
15629.284
  0
LINE
  8
Éíû@
 10
-20591.205
 20
15629.284
 11
-17591.205
 21
15629.284
  0
POINT
  8
Éíû@
 10
-17591.205
 20
15629.284
  0
TEXT
  7
TextStyle03
  8
Éíû@
  6
CONTINUOUS
 10
-19338.75
 20
15665.0
  1
900
 40
300.0
 72
     5
 11
-18851.25
 21
15665.0
  0
ENDBLK
  0
BLOCK
  2
*DIM_0092
 70
    65
 10
0.0
 20
0.0
  0
LINE
  8
Éíû@
 10
-25226.258
 20
14840.23675
 11
-25826.258
 21
14840.23675
  0
LINE
  8
Éíû@
 10
-25226.258
 20
12506.9035
 11
-25826.258
 21
12506.9035
  0
LINE
  8
Éíû@
 10
-25826.258
 20
14840.23675
 11
-25826.258
 21
12506.9035
  0
POINT
  8
Éíû@
 10
-25826.258
 20
14840.23675
  0
POINT
  8
Éíû@
 10
-25826.258
 20
12506.9035
  0
TEXT
  7
TextStyle03
  8
Éíû@
  6
CONTINUOUS
 10
-25867.5
 20
13428.75
  1
700
 40
300.0
 50
90.0
 72
     5
 11
-25867.5
 21
13916.25
  0
ENDBLK
  0
BLOCK
  2
*DIM_0093
 70
    65
 10
0.0
 20
0.0
  0
LINE
  8
Éíû@
 10
-25226.258
 20
12506.9035
 11
-25826.258
 21
12506.9035
  0
LINE
  8
Éíû@
 10
-25226.258
 20
5840.23675
 11
-25826.258
 21
5840.23675
  0
LINE
  8
Éíû@
 10
-25826.258
 20
12506.9035
 11
-25826.258
 21
5840.23675
  0
POINT
  8
Éíû@
 10
-25826.258
 20
12506.9035
  0
POINT
  8
Éíû@
 10
-25826.258
 20
5840.23675
  0
TEXT
  7
TextStyle03
  8
Éíû@
  6
CONTINUOUS
 10
-25867.5
 20
8760.0
  1
2,000
 40
300.0
 50
90.0
 72
     5
 11
-25867.5
 21
9585.0
  0
ENDBLK
  0
BLOCK
  2
*DIM_0094
 70
    65
 10
0.0
 20
0.0
  0
LINE
  8
Éíû@
 10
-25826.258
 20
14840.23675
 11
-26426.258
 21
14840.23675
  0
LINE
  8
Éíû@
 10
-25826.258
 20
5840.23675
 11
-26426.258
 21
5840.23675
  0
LINE
  8
Éíû@
 10
-26426.258
 20
14840.23675
 11
-26426.258
 21
5840.23675
  0
POINT
  8
Éíû@
 10
-26426.258
 20
14840.23675
  0
POINT
  8
Éíû@
 10
-26426.258
 20
5840.23675
  0
TEXT
  7
TextStyle03
  8
Éíû@
  6
CONTINUOUS
 10
-26467.5
 20
9927.5
  1
2,700
 40
300.0
 50
90.0
 72
     5
 11
-26467.5
 21
10752.5
  0
ENDBLK
  0
BLOCK
  2
*GRP_0095
 70
    65
 10
0.0
 20
0.0
  0
POINT
  8
Éíû@
 10
19947.2305
 20
8340.23675
  0
POLYLINE
  8
Éíû@
 66
     1
  0
VERTEX
  8
Éíû@
 10
19947.2305
 20
8340.23675
  0
VERTEX
  8
Éíû@
 10
21018.288
 20
10195.363
  0
VERTEX
  8
Éíû@
 10
21419.09425
 20
10195.363
  0
SEQEND
  0
ENDBLK
  0
BLOCK
  2
*GRP_0096
 70
    65
 10
0.0
 20
0.0
  0
POINT
  8
Éíû@
 10
7479.318
 20
8840.23675
  0
POLYLINE
  8
Éíû@
 66
     1
  0
VERTEX
  8
Éíû@
 10
7479.318
 20
8840.23675
  0
VERTEX
  8
Éíû@
 10
8516.1155
 20
10636.023
  0
VERTEX
  8
Éíû@
 10
8913.6045
 20
10636.023
  0
SEQEND
  0
ENDBLK
  0
BLOCK
  2
*GRP_0097
 70
    65
 10
0.0
 20
0.0
  0
POINT
  8
Éíû@
 10
-10225.23675
 20
-8369.04575
  0
POLYLINE
  8
Éíû@
 66
     1
  0
VERTEX
  8
Éíû@
 10
-10225.23675
 20
-8369.04575
  0
VERTEX
  8
Éíû@
 10
-10789.02775
 20
-7392.531
  0
VERTEX
  8
Éíû@
 10
-11378.4795
 20
-7392.531
  0
SEQEND
  0
ENDBLK
  0
BLOCK
  2
*GRP_0098
 70
    65
 10
0.0
 20
0.0
  0
POINT
  8
Éíû@
 10
-10823.41725
 20
12043.3025
  0
POLYLINE
  8
Éíû@
 66
     1
  0
VERTEX
  8
Éíû@
 10
-10823.41725
 20
12043.3025
  0
VERTEX
  8
Éíû@
 10
-10347.53125
 20
11137.8115
  0
VERTEX
  8
Éíû@
 10
-10060.8025
 20
11137.8115
  0
SEQEND
  0
ENDBLK
  0
ENDSEC
  0
SECTION
  2
ENTITIES
  0
POLYLINE
  8
┌▓È1
  6
CONTINUOUS
 66
     1
 70
     1
  0
VERTEX
  8
┌▓È1
 10
-29700.0
 20
-21000.0
  0
VERTEX
  8
┌▓È1
 10
29700.0
 20
-21000.0
  0
VERTEX
  8
┌▓È1
 10
29700.0
 20
21000.0
  0
VERTEX
  8
┌▓È1
 10
-29700.0
 20
21000.0
  0
SEQEND
  0
LINE
  8
┌▓È1
 10
-45438.848
 20
14840.23675
 11
-38522.18125
 21
14840.23675
  0
LINE
  8
┌▓È1
 10
4023.3465
 20
14840.23675
 11
12190.01325
 21
14840.23675
  0
LINE
  8
┌▓È1
 10
16474.3025
 20
14840.23675
 11
16474.3025
 21
5840.23675
  0
LINE
  8
┌▓È1
 10
4190.013
 20
5840.23675
 11
12190.01325
 21
5840.23675
  0
LINE
  8
┌▓È1
 10
16474.3025
 20
14840.23675
 11
21140.96925
 21
14840.23675
  0
LINE
  8
┌▓È1
 10
1585.75325
 20
-2369.04575
 11
11550.443
 21
-2369.04575
  0
LINE
  8
┌▓È1
 10
1536.168
 20
-11369.04575
 11
11635.9085
 21
-11369.04575
  0
LINE
  8
┌▓È1
 10
12961.26
 20
-2369.04575
 11
22925.94975
 21
-2369.04575
  0
LINE
  8
┌▓È1
 10
25689.4215
 20
-11369.046
 11
25689.4215
 21
-2369.04575
  0
LINE
  8
┌▓È1
 10
23298.043
 20
-11369.04575
 11
25689.4215
 21
-11369.04575
  0
LINE
  8
┌▓È1
 10
23298.043
 20
-2369.04575
 11
25689.4215
 21
-2369.04575
  0
LINE
  8
┌▓È1
 10
12911.67475
 20
-11369.04575
 11
22269.53675
 21
-11369.04575
  0
LINE
  8
┌▓È1
 10
-9243.12975
 20
-2369.04575
 11
-12308.0125
 21
-2369.04575
  0
LINE
  8
┌▓È1
 10
-9243.12975
 20
-11369.04575
 11
-12308.0125
 21
-11369.04575
  0
LINE
  8
┌▓È1
 10
-9243.12975
 20
-2369.04575
 11
-9243.12975
 21
-11369.04575
  0
LINE
  8
┌▓È1
 10
-16151.8355
 20
-2369.04575
 11
-22318.502
 21
-2369.04575
  0
LINE
  8
┌▓È1
 10
-16318.50225
 20
-11369.04575
 11
-23653.68675
 21
-11369.04575
  0
LINE
  8
┌▓È1
 10
-4159.47425
 20
-2369.04575
 11
-7224.357
 21
-2369.04575
  0
LINE
  8
┌▓È1
 10
-4159.47425
 20
-11369.04575
 11
-7224.357
 21
-11369.04575
  0
LINE
  8
┌▓È1
 10
-4159.47425
 20
-2369.04575
 11
-4159.47425
 21
-11369.04575
  0
LINE
  8
┌▓È1
 10
-3899.228
 20
14840.23675
 11
-3899.228
 21
5840.23675
  0
LINE
  8
┌▓È1
 10
-3899.228
 20
10670.05575
 11
-3899.228
 21
14840.23675
  0
LINE
  8
┌▓È1
 10
-3899.228
 20
14840.23675
 11
-5668.50025
 21
14840.23675
  0
LINE
  8
┌▓È1
 10
-17591.205
 20
14840.23675
 11
-24591.205
 21
14840.23675
  0
LINE
  8
┌▓È1
 10
-17591.205
 20
5840.23675
 11
-24591.205
 21
5840.23675
  0
LINE
  8
┌▓È1
 10
-10823.41725
 20
5840.23675
 11
-15790.08375
 21
5840.23675
  0
LINE
  8
┌▓È1
 10
-3899.228
 20
5840.23675
 11
-5819.29725
 21
5840.23675
  0
LINE
  8
┌▓È1
 10
16474.3025
 20
5840.23675
 11
21140.96925
 21
5840.23675
  0
LINE
  8
┌▓È1
 10
-10429.648
 20
14840.23675
 11
-15823.417
 21
14840.23675
  0
POLYLINE
  8
┌▓È2
 66
     1
 70
     1
  0
VERTEX
  8
┌▓È2
 10
-4819.22775
 20
14490.4135
  0
VERTEX
  8
┌▓È2
 10
-4985.8945
 20
14490.4135
  0
VERTEX
  8
┌▓È2
 10
-4985.8945
 20
14423.74675
  0
VERTEX
  8
┌▓È2
 10
-4819.22775
 20
14423.74675
  0
SEQEND
  0
POLYLINE
  8
┌▓È2
 66
     1
 70
     1
  0
VERTEX
  8
┌▓È2
 10
-4819.22775
 20
12109.9425
  0
VERTEX
  8
┌▓È2
 10
-4985.8945
 20
12109.9425
  0
VERTEX
  8
┌▓È2
 10
-4985.8945
 20
12043.27575
  0
VERTEX
  8
┌▓È2
 10
-4819.22775
 20
12043.27575
  0
SEQEND
  0
LINE
  8
┌▓È4
 10
-42522.18125
 20
11840.23675
 11
-42522.18125
 21
10840.23675
  0
LINE
  8
┌▓È4
 10
-42488.84775
 20
11840.23675
 11
-42488.84775
 21
10840.23675
  0
LINE
  8
┌▓È4
 10
-42522.18125
 20
11840.23675
 11
-42522.18125
 21
10840.23675
  0
LINE
  8
┌▓È4
 10
-45488.848
 20
10906.9035
 11
-42522.18125
 21
10906.9035
  0
LINE
  8
┌▓È4
 10
-45522.1815
 20
11840.23675
 11
-45522.1815
 21
10840.23675
  0
LINE
  8
┌▓È4
 10
-45488.848
 20
11840.23675
 11
-45488.848
 21
10840.23675
  0
LINE
  8
┌▓È4
 10
-38522.18125
 20
11840.23675
 11
-38522.18125
 21
10840.23675
  0
LINE
  8
┌▓È4
 10
-38555.51475
 20
11840.23675
 11
-38555.51475
 21
10840.23675
  0
LINE
  8
┌▓È4
 10
-38522.18125
 20
11840.23675
 11
-38522.18125
 21
10840.23675
  0
LINE
  8
┌▓È4
 10
-42488.84775
 20
10906.9035
 11
-38522.18125
 21
10906.9035
  0
LINE
  8
┌▓È4
 10
-45522.1815
 20
10840.23675
 11
-38522.18125
 21
10840.23675
  0
LINE
  8
┌▓È4
 10
7438.4825
 20
-8808.02475
 11
7681.301
 21
-8667.8335
  0
LINE
  8
┌▓È4
 10
7438.4825
 20
-8808.02475
 11
8013.97175
 21
-8808.02475
  0
LINE
  8
┌▓È4
 10
7438.4825
 20
-4614.10575
 11
7681.301
 21
-4473.9145
  0
LINE
  8
┌▓È4
 10
7438.4825
 20
-4614.10575
 11
8013.97175
 21
-4614.10575
  0
LINE
  8
┌▓È4
  6
DOT
 10
8294.4165
 20
-8948.216
 11
8537.235
 21
-8808.02475
  0
LINE
  8
┌▓È4
  6
DOT
 10
8013.97175
 20
-8808.02475
 11
8537.235
 21
-8808.02475
  0
LINE
  8
┌▓È4
  6
DOT
 10
8294.4165
 20
-4754.297
 11
8537.235
 21
-4614.10575
  0
LINE
  8
┌▓È4
  6
DOT
 10
8013.97175
 20
-4614.10575
 11
8537.235
 21
-4614.10575
  0
INSERT
  2
*GRP_0072
  8
┌▓È4
 10
0.0
 20
0.0
  0
INSERT
  2
*GRP_0073
  8
┌▓È4
 10
0.0
 20
0.0
  0
INSERT
  2
*GRP_0074
  8
┌▓È4
 10
0.0
 20
0.0
  0
INSERT
  2
*GRP_0075
  8
┌▓È4
 10
0.0
 20
0.0
  0
INSERT
  2
*GRP_0076
  8
┌▓È4
 10
0.0
 20
0.0
  0
INSERT
  2
*GRP_0077
  8
┌▓È4
 10
0.0
 20
0.0
  0
LINE
  8
┌▓È4
 10
-3923.937
 20
11840.23675
 11
-3923.937
 21
10840.23675
  0
LINE
  8
┌▓È4
 10
-10823.41725
 20
11840.23675
 11
-10823.41725
 21
10840.23675
  0
LINE
  8
┌▓È4
 10
-15823.41725
 20
11840.23675
 11
-15823.41725
 21
10840.23675
  0
LINE
  8
┌▓È4
 10
-10823.41725
 20
10840.23675
 11
-15823.41725
 21
10840.23675
  0
LINE
  8
┌▓È4
 10
-4565.89475
 20
11840.23675
 11
-4565.89475
 21
10840.23675
  0
LINE
  8
┌▓È4
 10
-3923.937
 20
10840.23675
 11
-4565.89475
 21
10840.23675
  0
LINE
  8
┌▓È4
 10
-23051.95325
 20
4467.4705
 11
-22871.9385
 21
4727.02675
  0
LINE
  8
┌▓È4
 10
-19478.869
 20
4467.4705
 11
-19658.88375
 21
4727.02675
  0
LINE
  8
┌▓È4
 10
-19658.88375
 20
4727.02675
 11
-22871.9385
 21
4727.02675
  0
LINE
  8
┌▓È4
 10
-13952.9305
 20
4467.4705
 11
-13772.91575
 21
4727.02675
  0
LINE
  8
┌▓È4
 10
-10379.84625
 20
4467.4705
 11
-10559.861
 21
4727.02675
  0
LINE
  8
┌▓È4
 10
-10559.861
 20
4727.02675
 11
-13772.91575
 21
4727.02675
  0
LINE
  8
┌▓È4
 10
-15756.7505
 20
11840.23675
 11
-15756.7505
 21
10840.23675
  0
LINE
  8
┌▓È4
 10
-15756.7505
 20
11840.23675
 11
-15756.7505
 21
10840.23675
  0
LINE
  8
┌▓È4
 10
-10890.084
 20
10906.9035
 11
-15823.41725
 21
10906.9035
  0
LINE
  8
┌▓È4
 10
-10890.084
 20
11840.23675
 11
-10890.084
 21
10840.23675
  0
LINE
  8
┌▓È4
 10
-4499.228
 20
11840.23675
 11
-4499.228
 21
10840.23675
  0
LINE
  8
┌▓È4
 10
-3990.60375
 20
11840.23675
 11
-3990.60375
 21
10840.23675
  0
LINE
  8
┌▓È4
 10
-4499.228
 20
10906.9035
 11
-3990.60375
 21
10906.9035
  0
LINE
  8
┌▓È5
 10
-38522.18125
 20
14673.57
 11
-38522.18125
 21
11840.23675
  0
LINE
  8
┌▓È5
 10
-45522.1815
 20
11840.23675
 11
-45522.1815
 21
14840.23675
  0
LINE
  8
┌▓È5
 10
-42522.1815
 20
11840.23675
 11
-42522.1815
 21
14673.57
  0
LINE
  8
┌▓È5
 10
-44022.1815
 20
11840.23675
 11
-44022.1815
 21
14673.57
  0
LINE
  8
┌▓È5
 10
-41188.84825
 20
11840.23675
 11
-41188.84825
 21
14673.57
  0
LINE
  8
┌▓È5
 10
-39855.515
 20
11840.23675
 11
-39855.515
 21
14673.57
  0
LINE
  8
┌▓È5
 10
-45522.1815
 20
14673.57
 11
-38522.18125
 21
14673.57
  0
LINE
  8
┌▓È5
 10
-45522.1815
 20
11840.23675
 11
-38522.18125
 21
11840.23675
  0
LINE
  8
┌▓È5
 10
-38522.18125
 20
11840.23675
 11
-38522.18125
 21
14840.23675
  0
LINE
  8
┌▓È5
 10
-38522.18125
 20
14673.57
 11
-38522.18125
 21
14673.57
  0
LINE
  8
┌▓È5
 10
12156.68
 20
9173.57025
 11
12190.01325
 21
9173.57025
  0
LINE
  8
┌▓È5
 10
12156.68
 20
9173.57025
 11
12156.68
 21
8840.23675
  0
LINE
  8
┌▓È5
 10
7106.67975
 20
5840.23675
 11
7106.67975
 21
8760.23675
  0
LINE
  8
┌▓È5
 10
12190.01325
 20
5840.23675
 11
12190.01325
 21
9173.57025
  0
LINE
  8
┌▓È5
 10
12190.01325
 20
8840.23675
 11
10193.34625
 21
8840.23675
  0
LINE
  8
┌▓È5
 10
10190.013
 20
8840.23675
 11
10190.013
 21
8173.57
  0
LINE
  8
┌▓È5
 10
12190.01325
 20
8173.57
 11
10190.01325
 21
8173.57
  0
LINE
  8
┌▓È5
 10
7023.3465
 20
5840.23675
 11
7023.3465
 21
8760.23675
  0
LINE
  8
┌▓È5
 10
10270.013
 20
8173.57
 11
10270.013
 21
5840.23675
  0
LINE
  8
┌▓È5
 10
10190.013
 20
8173.57
 11
10190.013
 21
5840.23675
  0
LINE
  8
┌▓È5
 10
16507.63575
 20
9173.57025
 11
16474.3025
 21
9173.57025
  0
LINE
  8
┌▓È5
 10
16474.3025
 20
8840.23675
 11
18474.30275
 21
8840.23675
  0
LINE
  8
┌▓È5
 10
16507.63575
 20
9173.57025
 11
16507.63575
 21
8840.23675
  0
LINE
  8
┌▓È5
 10
16474.3025
 20
5840.23675
 11
16474.3025
 21
9173.57025
  0
LINE
  8
┌▓È5
 10
18474.3025
 20
8840.23675
 11
18474.3025
 21
8173.57
  0
LINE
  8
┌▓È5
 10
18310.96925
 20
5840.23675
 11
18310.96925
 21
6173.57
  0
LINE
  8
┌▓È5
 10
18390.96925
 20
5840.23675
 11
18390.96925
 21
6173.57
  0
LINE
  8
┌▓È5
 10
18474.3025
 20
6173.57
 11
18474.3025
 21
8173.57
  0
LINE
  8
┌▓È5
 10
21140.96925
 20
5840.23675
 11
21140.96925
 21
9173.57025
  0
LINE
  8
┌▓È5
 10
5648.34625
 20
8173.57
 11
5648.34625
 21
8760.23675
  0
LINE
  8
┌▓È5
 10
10190.013
 20
8173.57
 11
4273.34625
 21
8173.57
  0
LINE
  8
┌▓È5
 10
10193.34625
 20
8840.23675
 11
4190.013
 21
8840.23675
  0
LINE
  8
┌▓È5
 10
12190.01325
 20
8760.23675
 11
4190.013
 21
8760.23675
  0
LINE
  8
┌▓È5
 10
4273.34625
 20
5840.23675
 11
4273.34625
 21
8760.23675
  0
LINE
  8
┌▓È5
 10
4190.013
 20
5840.23675
 11
4190.013
 21
9173.57025
  0
LINE
  8
┌▓È5
 10
10894.03
 20
-2369.04575
 11
10894.03
 21
-11369.04575
  0
LINE
  8
┌▓È5
 10
2160.6965
 20
-2369.04575
 11
2160.6965
 21
-11369.04575
  0
LINE
  8
┌▓È5
 10
2260.6965
 20
-2369.04575
 11
2260.6965
 21
-11369.04575
  0
LINE
  8
┌▓È5
 10
10794.03
 20
-2369.04575
 11
10794.03
 21
-11369.04575
  0
LINE
  8
┌▓È5
  6
CONTINUOUS
 10
2260.6965
 20
-2602.379
 11
10794.03
 21
-2602.379
  0
LINE
  8
┌▓È5
  6
CONTINUOUS
 10
2260.6965
 20
-2502.379
 11
10794.03
 21
-2502.379
  0
LINE
  8
┌▓È5
  6
CONTINUOUS
 10
2260.6965
 20
-5935.7125
 11
10794.03
 21
-5935.7125
  0
LINE
  8
┌▓È5
 10
2260.6965
 20
-6169.04575
 11
10794.03
 21
-6169.04575
  0
LINE
  8
┌▓È5
  6
CONTINUOUS
 10
10794.03
 20
-11152.37925
 11
2260.6965
 21
-11152.37925
  0
LINE
  8
┌▓È5
  6
CONTINUOUS
 10
2260.6965
 20
-11035.713
 11
10794.03
 21
-11035.713
  0
LINE
  8
┌▓È5
 10
22269.53675
 20
-2369.04575
 11
22269.53675
 21
-11369.04575
  0
LINE
  8
┌▓È5
 10
13536.20325
 20
-2369.04575
 11
13536.20325
 21
-11369.04575
  0
LINE
  8
┌▓È5
 10
13636.20325
 20
-2369.04575
 11
13636.20325
 21
-11369.04575
  0
LINE
  8
┌▓È5
 10
22169.53675
 20
-2369.04575
 11
22169.53675
 21
-11369.04575
  0
LINE
  8
┌▓È5
  6
CONTINUOUS
 10
16736.20325
 20
-4269.04575
 11
19402.87
 21
-4269.04575
  0
LINE
  8
┌▓È5
  6
CONTINUOUS
 10
19502.87
 20
-4269.04575
 11
22169.53675
 21
-4269.04575
  0
LINE
  8
┌▓È5
  6
CONTINUOUS
 10
16636.20325
 20
-4269.04575
 11
13636.20325
 21
-4269.04575
  0
LINE
  8
┌▓È5
  6
CONTINUOUS
 10
16636.20325
 20
-5935.7125
 11
13636.20325
 21
-5935.7125
  0
LINE
  8
┌▓È5
  6
CONTINUOUS
 10
16736.20325
 20
-4369.04575
 11
19402.87
 21
-4369.04575
  0
LINE
  8
┌▓È5
  6
CONTINUOUS
 10
19502.87
 20
-4369.04575
 11
22169.53675
 21
-4369.04575
  0
LINE
  8
┌▓È5
  6
CONTINUOUS
 10
16636.20325
 20
-4369.04575
 11
13636.20325
 21
-4369.04575
  0
LINE
  8
┌▓È5
  6
CONTINUOUS
 10
16636.20325
 20
-6035.7125
 11
13636.20325
 21
-6035.7125
  0
LINE
  8
┌▓È5
  6
CONTINUOUS
 10
16736.20325
 20
-7702.379
 11
19402.87
 21
-7702.379
  0
LINE
  8
┌▓È5
  6
CONTINUOUS
 10
19502.87
 20
-7702.379
 11
22169.53675
 21
-7702.379
  0
LINE
  8
┌▓È5
  6
CONTINUOUS
 10
16636.20325
 20
-7702.379
 11
13636.20325
 21
-7702.379
  0
LINE
  8
┌▓È5
  6
CONTINUOUS
 10
16736.20325
 20
-7802.37925
 11
19402.87
 21
-7802.37925
  0
LINE
  8
┌▓È5
  6
CONTINUOUS
 10
19502.87
 20
-7802.37925
 11
22169.53675
 21
-7802.37925
  0
LINE
  8
┌▓È5
  6
CONTINUOUS
 10
16636.20325
 20
-7802.37925
 11
13636.20325
 21
-7802.37925
  0
LINE
  8
┌▓È5
  6
CONTINUOUS
 10
16736.20325
 20
-9369.04575
 11
19402.87
 21
-9369.04575
  0
LINE
  8
┌▓È5
  6
CONTINUOUS
 10
19502.87
 20
-9369.04575
 11
22169.53675
 21
-9369.04575
  0
LINE
  8
┌▓È5
  6
CONTINUOUS
 10
16636.20325
 20
-9369.04575
 11
13636.20325
 21
-9369.04575
  0
LINE
  8
┌▓È5
  6
CONTINUOUS
 10
16736.20325
 20
-9469.04575
 11
19402.87
 21
-9469.04575
  0
LINE
  8
┌▓È5
  6
CONTINUOUS
 10
19502.87
 20
-9469.04575
 11
22169.53675
 21
-9469.04575
  0
LINE
  8
┌▓È5
  6
CONTINUOUS
 10
16636.20325
 20
-9469.04575
 11
13636.20325
 21
-9469.04575
  0
LINE
  8
┌▓È5
  6
CONTINUOUS
 10
13636.20325
 20
-2602.379
 11
22169.53675
 21
-2602.379
  0
LINE
  8
┌▓È5
  6
CONTINUOUS
 10
13636.20325
 20
-2502.379
 11
22169.53675
 21
-2502.379
  0
LINE
  8
┌▓È5
  6
CONTINUOUS
 10
16736.20325
 20
-6035.7125
 11
19402.87
 21
-6035.7125
  0
LINE
  8
┌▓È5
  6
CONTINUOUS
 10
19502.87
 20
-6035.7125
 11
22169.53675
 21
-6035.7125
  0
LINE
  8
┌▓È5
  6
CONTINUOUS
 10
16736.20325
 20
-5935.7125
 11
19402.87
 21
-5935.7125
  0
LINE
  8
┌▓È5
  6
CONTINUOUS
 10
19502.87
 20
-5935.7125
 11
22169.53675
 21
-5935.7125
  0
LINE
  8
┌▓È5
  6
CONTINUOUS
 10
22169.53675
 20
-11152.37925
 11
13636.20325
 21
-11152.37925
  0
LINE
  8
┌▓È5
 10
16736.20325
 20
-2602.379
 11
16736.20325
 21
-11035.713
  0
LINE
  8
┌▓È5
 10
16636.20325
 20
-2602.379
 11
16636.20325
 21
-11035.713
  0
LINE
  8
┌▓È5
  6
CONTINUOUS
 10
13636.20325
 20
-11035.713
 11
22169.53675
 21
-11035.713
  0
LINE
  8
┌▓È5
 10
19402.87
 20
-2602.379
 11
19402.87
 21
-11035.713
  0
LINE
  8
┌▓È5
 10
19502.87
 20
-2602.379
 11
19502.87
 21
-11035.713
  0
LINE
  8
┌▓È5
  6
CONTINUOUS
 10
23622.75475
 20
-7602.37925
 11
23622.75475
 21
-7685.71275
  0
LINE
  8
┌▓È5
  6
CONTINUOUS
 10
23622.75475
 20
-9269.046
 11
23622.75475
 21
-9369.046
  0
LINE
  8
┌▓È5
  6
CONTINUOUS
 10
25609.4215
 20
-7702.37925
 11
23922.75475
 21
-7702.37925
  0
LINE
  8
┌▓È5
  6
CONTINUOUS
 10
25609.4215
 20
-9369.046
 11
23922.75475
 21
-9369.046
  0
LINE
  8
┌▓È5
  6
CONTINUOUS
 10
25609.4215
 20
-9469.046
 11
23922.75475
 21
-9469.046
  0
LINE
  8
┌▓È5
 10
23922.75475
 20
-9469.046
 11
23922.75475
 21
-9369.046
  0
LINE
  8
┌▓È5
  6
CONTINUOUS
 10
25609.4215
 20
-7802.37925
 11
23922.75475
 21
-7802.37925
  0
LINE
  8
┌▓È5
 10
23922.75475
 20
-7802.37925
 11
23922.75475
 21
-7702.37925
  0
LINE
  8
┌▓È5
  6
CONTINUOUS
 10
25609.4215
 20
-2582.37925
 11
25629.4215
 21
-2582.37925
  0
LINE
  8
┌▓È5
  6
CONTINUOUS
 10
25629.4215
 20
-2602.37925
 11
25689.4215
 21
-2602.37925
  0
LINE
  8
┌▓È5
  6
CONTINUOUS
 10
25629.4215
 20
-2682.37925
 11
25689.4215
 21
-2682.37925
  0
LINE
  8
┌▓È5
  6
CONTINUOUS
 10
25689.4215
 20
-2602.37925
 11
25629.4215
 21
-2682.37925
  0
LINE
  8
┌▓È5
  6
CONTINUOUS
 10
25689.4215
 20
-2502.37925
 11
23622.75475
 21
-2502.37925
  0
LINE
  8
┌▓È5
  6
CONTINUOUS
 10
23622.75475
 20
-2502.37925
 11
23622.75475
 21
-2602.37925
  0
LINE
  8
┌▓È5
  6
CONTINUOUS
 10
23622.75475
 20
-2602.37925
 11
25689.4215
 21
-2602.37925
  0
LINE
  8
┌▓È5
  6
CONTINUOUS
 10
23622.75475
 20
-4169.046
 11
23622.75475
 21
-4252.37925
  0
LINE
  8
┌▓È5
  6
CONTINUOUS
 10
25609.4215
 20
-4269.046
 11
23922.75475
 21
-4269.046
  0
LINE
  8
┌▓È5
  6
CONTINUOUS
 10
25609.4215
 20
-4369.046
 11
23922.75475
 21
-4369.046
  0
LINE
  8
┌▓È5
 10
23922.75475
 20
-4369.046
 11
23922.75475
 21
-4269.046
  0
LINE
  8
┌▓È5
 10
23922.75475
 20
-6035.71275
 11
23922.75475
 21
-5935.71275
  0
LINE
  8
┌▓È5
  6
CONTINUOUS
 10
25609.4215
 20
-6035.71275
 11
23922.75475
 21
-6035.71275
  0
LINE
  8
┌▓È5
  6
CONTINUOUS
 10
25609.4215
 20
-5935.71275
 11
23922.75475
 21
-5935.71275
  0
LINE
  8
┌▓È5
 10
23922.75475
 20
-5935.71275
 11
25609.4215
 21
-5935.71275
  0
LINE
  8
┌▓È5
 10
23622.75475
 20
-2502.37925
 11
23622.75475
 21
-2369.04575
  0
LINE
  8
┌▓È5
 10
23622.75475
 20
-6169.046
 11
23856.08825
 21
-6169.046
  0
LINE
  8
┌▓È5
 10
23856.08825
 20
-6169.046
 11
23856.08825
 21
-5935.71275
  0
LINE
  8
┌▓È5
  6
CONTINUOUS
 10
23856.08825
 20
-5935.71275
 11
23622.75475
 21
-5935.71275
  0
LINE
  8
┌▓È5
  6
CONTINUOUS
 10
23622.75475
 20
-5935.71275
 11
23622.75475
 21
-6169.046
  0
LINE
  8
┌▓È5
 10
23856.08825
 20
-2602.37925
 11
23856.08825
 21
-2502.37925
  0
LINE
  8
┌▓È5
  6
CONTINUOUS
 10
23622.75475
 20
-11152.3795
 11
23622.75475
 21
-11035.71325
  0
LINE
  8
┌▓È5
  6
CONTINUOUS
 10
25629.4215
 20
-11035.71325
 11
25689.4215
 21
-11035.71325
  0
LINE
  8
┌▓È5
  6
CONTINUOUS
 10
25629.4215
 20
-10955.71325
 11
25689.4215
 21
-10955.71325
  0
LINE
  8
┌▓È5
  6
CONTINUOUS
 10
25689.4215
 20
-10955.71325
 11
25629.4215
 21
-11035.71325
  0
LINE
  8
┌▓È5
  6
CONTINUOUS
 10
25689.4215
 20
-11035.71325
 11
23622.75475
 21
-11035.71325
  0
LINE
  8
┌▓È5
 10
23694.7295
 20
-11152.3795
 11
23694.7295
 21
-11369.046
  0
LINE
  8
┌▓È5
  6
CONTINUOUS
 10
25689.4215
 20
-11152.3795
 11
23622.75475
 21
-11152.3795
  0
LINE
  8
┌▓È5
  6
CONTINUOUS
 10
25609.4215
 20
-2582.37925
 11
25609.4215
 21
-11035.71325
  0
LINE
  8
┌▓È5
  6
CONTINUOUS
 10
25629.4215
 20
-2582.37925
 11
25629.4215
 21
-11035.71325
  0
LINE
  8
┌▓È5
 10
23856.08825
 20
-11035.71325
 11
23856.08825
 21
-11152.3795
  0
LINE
  8
┌▓È5
 10
5260.6965
 20
-5935.7125
 11
5260.6965
 21
-2602.379
  0
LINE
  8
┌▓È5
 10
5260.6965
 20
-11035.713
 11
5260.6965
 21
-6169.04575
  0
LINE
  8
┌▓È5
 10
5360.6965
 20
-5935.7125
 11
5360.6965
 21
-2602.379
  0
LINE
  8
┌▓È5
 10
5360.6965
 20
-11035.713
 11
5360.6965
 21
-6169.04575
  0
LINE
  8
┌▓È5
 10
5094.02975
 20
-6335.7125
 11
2427.36325
 21
-6335.7125
  0
LINE
  8
┌▓È5
 10
2427.36325
 20
-6335.7125
 11
2427.36325
 21
-10869.04625
  0
LINE
  8
┌▓È5
 10
2427.36325
 20
-10869.04625
 11
5094.02975
 21
-10869.04625
  0
LINE
  8
┌▓È5
 10
5094.02975
 20
-6335.7125
 11
5094.02975
 21
-10869.04625
  0
LINE
  8
┌▓È5
 10
5094.02975
 20
-2769.04575
 11
2427.36325
 21
-2769.04575
  0
LINE
  8
┌▓È5
 10
2427.36325
 20
-2769.04575
 11
2427.36325
 21
-5769.04575
  0
LINE
  8
┌▓È5
 10
2427.36325
 20
-5769.04575
 11
5094.02975
 21
-5769.04575
  0
LINE
  8
┌▓È5
 10
5094.02975
 20
-2769.04575
 11
5094.02975
 21
-5769.04575
  0
LINE
  8
┌▓È5
 10
7994.03
 20
-5935.7125
 11
7994.03
 21
-2602.379
  0
LINE
  8
┌▓È5
 10
7994.03
 20
-11035.713
 11
7994.03
 21
-6169.04575
  0
LINE
  8
┌▓È5
 10
5527.36325
 20
-5769.04575
 11
5527.36325
 21
-2769.04575
  0
LINE
  8
┌▓È5
 10
5527.36325
 20
-10869.04625
 11
5527.36325
 21
-6335.7125
  0
LINE
  8
┌▓È5
 10
8160.69675
 20
-2769.04575
 11
10627.36325
 21
-2769.04575
  0
LINE
  8
┌▓È5
 10
10627.36325
 20
-2769.04575
 11
10627.36325
 21
-5769.04575
  0
LINE
  8
┌▓È5
 10
10627.36325
 20
-5769.04575
 11
8160.69675
 21
-5769.04575
  0
LINE
  8
┌▓È5
 10
8160.69675
 20
-2769.04575
 11
8160.69675
 21
-5769.04575
  0
LINE
  8
┌▓È5
 10
10627.36325
 20
-6335.7125
 11
10627.36325
 21
-10869.04625
  0
LINE
  8
┌▓È5
 10
10627.36325
 20
-10869.04625
 11
8160.69675
 21
-10869.04625
  0
LINE
  8
┌▓È5
 10
10627.36325
 20
-6335.7125
 11
8160.69675
 21
-6335.7125
  0
LINE
  8
┌▓È5
 10
8160.69675
 20
-10869.04625
 11
8160.69675
 21
-6335.7125
  0
LINE
  8
┌▓È5
 10
5527.36325
 20
-6335.7125
 11
7994.03
 21
-6335.7125
  0
LINE
  8
┌▓È5
 10
5527.36325
 20
-10869.04625
 11
7994.03
 21
-10869.04625
  0
LINE
  8
┌▓È5
 10
5527.36325
 20
-5769.04575
 11
7994.03
 21
-5769.04575
  0
LINE
  8
┌▓È5
 10
5527.36325
 20
-2769.04575
 11
7994.03
 21
-2769.04575
  0
POLYLINE
  8
┌▓È5
 66
     1
 70
     1
  0
VERTEX
  8
┌▓È5
 10
5210.6965
 20
-4102.379
  0
VERTEX
  8
┌▓È5
 10
5144.02975
 20
-4102.379
  0
VERTEX
  8
┌▓È5
 10
5144.02975
 20
-4435.71225
  0
VERTEX
  8
┌▓È5
 10
5210.6965
 20
-4435.71225
  0
SEQEND
  0
POLYLINE
  8
┌▓È5
 66
     1
 70
     1
  0
VERTEX
  8
┌▓È5
 10
5210.6965
 20
-8435.7125
  0
VERTEX
  8
┌▓È5
 10
5144.02975
 20
-8435.7125
  0
VERTEX
  8
┌▓È5
 10
5144.02975
 20
-8769.04575
  0
VERTEX
  8
┌▓È5
 10
5210.6965
 20
-8769.04575
  0
SEQEND
  0
POLYLINE
  8
┌▓È5
 66
     1
 70
     1
  0
VERTEX
  8
┌▓È5
 10
10744.03
 20
-4102.379
  0
VERTEX
  8
┌▓È5
 10
10677.36325
 20
-4102.379
  0
VERTEX
  8
┌▓È5
 10
10677.36325
 20
-4435.71225
  0
VERTEX
  8
┌▓È5
 10
10744.03
 20
-4435.71225
  0
SEQEND
  0
POLYLINE
  8
┌▓È5
 66
     1
 70
     1
  0
VERTEX
  8
┌▓È5
 10
5410.6965
 20
-4102.379
  0
VERTEX
  8
┌▓È5
 10
5477.36325
 20
-4102.379
  0
VERTEX
  8
┌▓È5
 10
5477.36325
 20
-4435.71225
  0
VERTEX
  8
┌▓È5
 10
5410.6965
 20
-4435.71225
  0
SEQEND
  0
POLYLINE
  8
┌▓È5
 66
     1
 70
     1
  0
VERTEX
  8
┌▓È5
 10
5410.6965
 20
-8435.7125
  0
VERTEX
  8
┌▓È5
 10
5477.36325
 20
-8435.7125
  0
VERTEX
  8
┌▓È5
 10
5477.36325
 20
-8769.04575
  0
VERTEX
  8
┌▓È5
 10
5410.6965
 20
-8769.04575
  0
SEQEND
  0
POLYLINE
  8
┌▓È5
 66
     1
 70
     1
  0
VERTEX
  8
┌▓È5
 10
10744.03
 20
-8435.7125
  0
VERTEX
  8
┌▓È5
 10
10677.36325
 20
-8435.7125
  0
VERTEX
  8
┌▓È5
 10
10677.36325
 20
-8769.04575
  0
VERTEX
  8
┌▓È5
 10
10744.03
 20
-8769.04575
  0
SEQEND
  0
LINE
  8
┌▓È5
 10
-9276.463
 20
-8035.71225
 11
-9243.12975
 21
-8035.71225
  0
LINE
  8
┌▓È5
 10
-9276.463
 20
-8035.71225
 11
-9276.463
 21
-8369.04575
  0
LINE
  8
┌▓È5
 10
-9243.12975
 20
-8369.04575
 11
-11163.13
 21
-8369.04575
  0
LINE
  8
┌▓È5
 10
-9243.12975
 20
-8035.71225
 11
-9243.12975
 21
-11369.04575
  0
LINE
  8
┌▓È5
 10
-19651.8355
 20
-11369.04575
 11
-19651.8355
 21
-8449.04575
  0
LINE
  8
┌▓È5
 10
-20985.16875
 20
-11035.7125
 11
-20985.16875
 21
-8449.04575
  0
LINE
  8
┌▓È5
 10
-22318.502
 20
-11369.04575
 11
-22318.502
 21
-8035.71225
  0
LINE
  8
┌▓È5
 10
-16318.50225
 20
-8449.04575
 11
-22318.502
 21
-8449.04575
  0
LINE
  8
┌▓È5
 10
-16318.50225
 20
-8035.71225
 11
-16318.50225
 21
-11369.04575
  0
LINE
  8
┌▓È5
 10
-22318.502
 20
-8369.04575
 11
-16318.50225
 21
-8369.04575
  0
LINE
  8
┌▓È5
 10
-9243.12975
 20
-8369.04575
 11
-11239.79675
 21
-8369.04575
  0
LINE
  8
┌▓È5
 10
-9243.12975
 20
-8449.04575
 11
-11243.13
 21
-8449.04575
  0
LINE
  8
┌▓È5
 10
-17429.61325
 20
-9035.7125
 11
-19651.8355
 21
-9035.7125
  0
LINE
  8
┌▓È5
 10
-11243.13
 20
-8369.04575
 11
-11243.13
 21
-9035.7125
  0
LINE
  8
┌▓È5
 10
-17429.61325
 20
-8449.04575
 11
-17429.61325
 21
-11369.04575
  0
LINE
  8
┌▓È5
 10
-11243.12975
 20
-9035.7125
 11
-11163.13
 21
-9035.7125
  0
LINE
  8
┌▓È5
 10
-22318.502
 20
-11035.7125
 11
-16318.50225
 21
-11035.7125
  0
LINE
  8
┌▓È5
 10
-4192.8075
 20
-8035.71225
 11
-4159.47425
 21
-8035.71225
  0
LINE
  8
┌▓È5
 10
-4192.8075
 20
-8035.71225
 11
-4192.8075
 21
-8369.04575
  0
LINE
  8
┌▓È5
 10
-4159.47425
 20
-8369.04575
 11
-6079.4745
 21
-8369.04575
  0
LINE
  8
┌▓È5
 10
-4159.47425
 20
-8035.71225
 11
-4159.47425
 21
-11369.04575
  0
LINE
  8
┌▓È5
 10
-4159.47425
 20
-8369.04575
 11
-6156.14125
 21
-8369.04575
  0
LINE
  8
┌▓È5
 10
-4159.47425
 20
-8449.04575
 11
-6159.4745
 21
-8449.04575
  0
LINE
  8
┌▓È5
 10
-11163.13
 20
-9035.7125
 11
-11163.13
 21
-8449.04575
  0
LINE
  8
┌▓È5
 10
-4239.47425
 20
-11369.04575
 11
-4239.47425
 21
-8449.04575
  0
LINE
  8
┌▓È5
 10
-9243.12975
 20
-11035.7125
 11
-11243.13
 21
-11035.7125
  0
LINE
  8
┌▓È5
 10
-22318.502
 20
-9079.04575
 11
-20985.16875
 21
-9079.04575
  0
LINE
  8
┌▓È5
 10
-22318.502
 20
-10372.379
 11
-20985.16875
 21
-10372.379
  0
LINE
  8
┌▓È5
 10
-22318.502
 20
-9112.379
 11
-20985.16875
 21
-9112.379
  0
LINE
  8
┌▓È5
 10
-22318.502
 20
-10405.71225
 11
-20985.16875
 21
-10405.71225
  0
LINE
  8
┌▓È5
 10
-22318.502
 20
-9725.71225
 11
-19651.8355
 21
-9725.71225
  0
LINE
  8
┌▓È5
 10
-22318.502
 20
-9759.0455
 11
-19651.8355
 21
-9759.0455
  0
LINE
  8
┌▓È5
 10
-17429.61325
 20
-9079.04575
 11
-16318.50225
 21
-9079.04575
  0
LINE
  8
┌▓È5
 10
-17429.61325
 20
-10372.379
 11
-16318.50225
 21
-10372.379
  0
LINE
  8
┌▓È5
 10
-17429.61325
 20
-9112.379
 11
-16318.50225
 21
-9112.379
  0
LINE
  8
┌▓È5
 10
-17429.61325
 20
-10405.71225
 11
-16318.50225
 21
-10405.71225
  0
LINE
  8
┌▓È5
 10
-17429.61325
 20
-9725.71225
 11
-16318.50225
 21
-9725.71225
  0
LINE
  8
┌▓È5
 10
-17429.61325
 20
-9759.0455
 11
-16318.50225
 21
-9759.0455
  0
LINE
  8
┌▓È5
 10
-6079.4745
 20
-10405.71225
 11
-6159.4745
 21
-10405.71225
  0
LINE
  8
┌▓È5
 10
-6079.4745
 20
-10372.379
 11
-6159.4745
 21
-10372.379
  0
LINE
  8
┌▓È5
 10
-6079.4745
 20
-9112.379
 11
-6159.4745
 21
-9112.379
  0
LINE
  8
┌▓È5
 10
-6079.4745
 20
-9079.04575
 11
-6159.4745
 21
-9079.04575
  0
LINE
  8
┌▓È5
 10
-6079.4745
 20
-9725.71225
 11
-6159.4745
 21
-9725.71225
  0
LINE
  8
┌▓È5
 10
-6079.4745
 20
-9759.0455
 11
-6159.4745
 21
-9759.0455
  0
LINE
  8
┌▓È5
 10
-6159.4745
 20
-9759.0455
 11
-6159.4745
 21
-10372.379
  0
LINE
  8
┌▓È5
 10
-6159.4745
 20
-8369.04575
 11
-6159.4745
 21
-9079.04575
  0
LINE
  8
┌▓È5
 10
-6159.4745
 20
-9112.379
 11
-6159.4745
 21
-9725.71225
  0
LINE
  8
┌▓È5
 10
-6079.4745
 20
-8449.04575
 11
-6079.4745
 21
-11369.04575
  0
LINE
  8
┌▓È5
 10
-6159.4745
 20
-10405.71225
 11
-6159.4745
 21
-11035.7125
  0
LINE
  8
┌▓È5
 10
-4656.14125
 20
-8449.04575
 11
-4656.14125
 21
-9079.04575
  0
LINE
  8
┌▓È5
 10
-4656.14125
 20
-9079.04575
 11
-4719.4745
 21
-9079.04575
  0
LINE
  8
┌▓È5
 10
-4719.4745
 20
-8449.04575
 11
-4719.4745
 21
-9079.04575
  0
LINE
  8
┌▓È5
 10
-4719.4745
 20
-9045.7125
 11
-6079.4745
 21
-9045.7125
  0
LINE
  8
┌▓È5
 10
-4719.4745
 20
-9062.379
 11
-6079.4745
 21
-9062.379
  0
LINE
  8
┌▓È5
 10
-4656.14125
 20
-9742.379
 11
-4719.4745
 21
-9742.379
  0
LINE
  8
┌▓È5
 10
-4719.4745
 20
-9709.04575
 11
-6079.4745
 21
-9709.04575
  0
LINE
  8
┌▓È5
 10
-4719.4745
 20
-9725.71225
 11
-6079.4745
 21
-9725.71225
  0
LINE
  8
┌▓È5
 10
-4656.14125
 20
-9112.379
 11
-4719.4745
 21
-9112.379
  0
LINE
  8
┌▓È5
 10
-4656.14125
 20
-9112.379
 11
-4656.14125
 21
-9742.379
  0
LINE
  8
┌▓È5
 10
-4719.4745
 20
-9112.379
 11
-4719.4745
 21
-9742.379
  0
LINE
  8
┌▓È5
 10
-4656.14125
 20
-10389.0455
 11
-4719.4745
 21
-10389.0455
  0
LINE
  8
┌▓È5
 10
-4719.4745
 20
-10355.71225
 11
-6079.4745
 21
-10355.71225
  0
LINE
  8
┌▓È5
 10
-4719.4745
 20
-10372.37875
 11
-6079.4745
 21
-10372.37875
  0
LINE
  8
┌▓È5
 10
-4656.14125
 20
-9759.0455
 11
-4719.4745
 21
-9759.0455
  0
LINE
  8
┌▓È5
 10
-4656.14125
 20
-9759.0455
 11
-4656.14125
 21
-10389.0455
  0
LINE
  8
┌▓È5
 10
-4719.4745
 20
-9759.0455
 11
-4719.4745
 21
-10389.0455
  0
LINE
  8
┌▓È5
 10
-4656.14125
 20
-11035.71225
 11
-4719.4745
 21
-11035.71225
  0
LINE
  8
┌▓È5
 10
-4719.4745
 20
-11002.379
 11
-6079.4745
 21
-11002.379
  0
LINE
  8
┌▓È5
 10
-4719.4745
 20
-11019.0455
 11
-6079.4745
 21
-11019.0455
  0
LINE
  8
┌▓È5
 10
-4656.14125
 20
-10405.71225
 11
-4719.4745
 21
-10405.71225
  0
LINE
  8
┌▓È5
 10
-4656.14125
 20
-10405.71225
 11
-4656.14125
 21
-11035.71225
  0
LINE
  8
┌▓È5
 10
-4719.4745
 20
-10405.71225
 11
-4719.4745
 21
-11035.71225
  0
LINE
  8
┌▓È5
 10
-6159.4745
 20
-11035.7125
 11
-4239.47425
 21
-11035.7125
  0
LINE
  8
┌▓È5
 10
-5999.4745
 20
-11369.04575
 11
-5999.4745
 21
-11035.7125
  0
LINE
  8
┌▓È5
 10
-11159.79675
 20
-11369.04575
 11
-11159.79675
 21
-11035.7125
  0
LINE
  8
┌▓È5
 10
-11076.4635
 20
-11369.04575
 11
-11076.4635
 21
-11035.7125
  0
LINE
  8
┌▓È5
  6
CONTINUOUS
 10
-3979.228
 20
14613.57
 11
-3959.228
 21
14613.57
  0
LINE
  8
┌▓È5
  6
CONTINUOUS
 10
-3959.228
 20
14593.57
 11
-3899.228
 21
14593.57
  0
LINE
  8
┌▓È5
  6
CONTINUOUS
 10
-3959.228
 20
14513.57
 11
-3899.228
 21
14513.57
  0
LINE
  8
┌▓È5
  6
CONTINUOUS
 10
-3899.228
 20
14593.57
 11
-3959.228
 21
14513.57
  0
LINE
  8
┌▓È5
 10
-3959.228
 20
14593.57
 11
-3899.228
 21
14593.57
  0
LINE
  8
┌▓È5
 10
-3979.228
 20
14593.57
 11
-4985.8945
 21
14593.57
  0
LINE
  8
┌▓È5
 10
-3899.228
 20
14673.57
 11
-5065.8945
 21
14673.57
  0
LINE
  8
┌▓È5
 10
-4919.22775
 20
14673.57
 11
-4919.22775
 21
14840.23675
  0
LINE
  8
┌▓È5
 10
-4839.22775
 20
14673.57
 11
-4839.22775
 21
14840.23675
  0
LINE
  8
┌▓È5
 10
-3995.89475
 20
13380.23675
 11
-3995.89475
 21
13300.23675
  0
LINE
  8
┌▓È5
 10
-4969.22775
 20
13380.23675
 11
-3995.89475
 21
13380.23675
  0
LINE
  8
┌▓È5
 10
-3995.89475
 20
13300.23675
 11
-4969.22775
 21
13300.23675
  0
LINE
  8
┌▓È5
 10
-4969.22775
 20
13380.23675
 11
-4969.22775
 21
13300.23675
  0
LINE
  8
┌▓È5
  6
CONTINUOUS
 10
-3979.228
 20
11900.23675
 11
-3959.228
 21
11900.23675
  0
LINE
  8
┌▓È5
  6
CONTINUOUS
 10
-3959.228
 20
11920.23675
 11
-3899.228
 21
11920.23675
  0
LINE
  8
┌▓È5
  6
CONTINUOUS
 10
-3959.228
 20
12000.23675
 11
-3899.228
 21
12000.23675
  0
LINE
  8
┌▓È5
  6
CONTINUOUS
 10
-3899.228
 20
12000.23675
 11
-3959.228
 21
11920.23675
  0
LINE
  8
┌▓È5
 10
-3959.228
 20
11920.23675
 11
-3899.228
 21
11920.23675
  0
LINE
  8
┌▓È5
 10
-3979.228
 20
11920.23675
 11
-4985.8945
 21
11920.23675
  0
LINE
  8
┌▓È5
 10
-3899.228
 20
11840.23675
 11
-5065.8945
 21
11840.23675
  0
LINE
  8
┌▓È5
 10
-5065.8945
 20
11840.23675
 11
-5065.8945
 21
14673.57
  0
LINE
  8
┌▓È5
  6
CONTINUOUS
 10
-3979.228
 20
11900.23675
 11
-3979.228
 21
14613.57
  0
LINE
  8
┌▓È5
  6
CONTINUOUS
 10
-3959.228
 20
11900.23675
 11
-3959.228
 21
14613.57
  0
LINE
  8
┌▓È5
 10
-5065.8945
 20
14673.57
 11
-5065.8945
 21
11840.23675
  0
LINE
  8
┌▓È5
 10
-4985.8945
 20
14673.57
 11
-4985.8945
 21
11840.23675
  0
LINE
  8
┌▓È5
 10
-14573.41725
 20
11840.23675
 11
-14573.41725
 21
14673.57
  0
LINE
  8
┌▓È5
 10
-12073.41725
 20
11840.23675
 11
-12073.41725
 21
14673.57
  0
LINE
  8
┌▓È5
 10
-10823.41725
 20
11840.23675
 11
-10823.41725
 21
14840.23675
  0
LINE
  8
┌▓È5
 10
-15823.417
 20
11840.23675
 11
-15823.417
 21
14840.23675
  0
LINE
  8
┌▓È5
 10
-10823.41725
 20
14673.57
 11
-15823.417
 21
14673.57
  0
LINE
  8
┌▓È5
 10
-17591.205
 20
14673.57
 11
-24591.205
 21
14673.57
  0
LINE
  8
┌▓È5
 10
-13323.417
 20
14673.57
 11
-13323.417
 21
11840.23675
  0
LINE
  8
┌▓È5
 10
-17591.205
 20
12506.9035
 11
-17591.205
 21
14840.23675
  0
LINE
  8
┌▓È5
 10
-20591.205
 20
12506.9035
 11
-20591.205
 21
14673.57
  0
LINE
  8
┌▓È5
 10
-19091.205
 20
12506.9035
 11
-19091.205
 21
14673.57
  0
LINE
  8
┌▓È5
 10
-24591.205
 20
12506.9035
 11
-24591.205
 21
14840.23675
  0
LINE
  8
┌▓È5
 10
-17591.205
 20
12506.9035
 11
-24591.205
 21
12506.9035
  0
LINE
  8
┌▓È5
 10
-21924.53825
 20
12506.9035
 11
-21924.53825
 21
14673.57
  0
LINE
  8
┌▓È5
 10
-23257.8715
 20
12506.9035
 11
-23257.8715
 21
14673.57
  0
LINE
  8
┌▓È5
 10
16474.3025
 20
8760.23675
 11
21140.96925
 21
8760.23675
  0
LINE
  8
┌▓È5
 10
18474.30275
 20
8840.23675
 11
21140.96925
 21
8840.23675
  0
LINE
  8
┌▓È5
 10
21140.96925
 20
8173.57
 11
18474.3025
 21
8173.57
  0
LINE
  8
┌▓È5
 10
16474.3025
 20
6173.57
 11
21140.96925
 21
6173.57
  0
LINE
  8
┌▓È5
 10
19807.63575
 20
8173.57
 11
19807.63575
 21
6173.57
  0
LINE
  8
┌▓È5
 10
-10790.084
 20
11840.23675
 11
-10790.084
 21
14840.23675
  0
LINE
  8
┌▓È5
 10
-15823.417
 20
11840.23675
 11
-10790.084
 21
11840.23675
  0
LINE
  8
┌▓È6
 10
16474.3025
 20
9173.57025
 11
21140.96925
 21
9173.57025
  0
LINE
  8
┌▓È6
 10
12190.01325
 20
9173.57025
 11
4190.013
 21
9173.57025
  0
LINE
  8
┌▓È6
 10
23739.4215
 20
-2602.37925
 11
23739.4215
 21
-5935.71275
  0
LINE
  8
┌▓È6
 10
23622.75475
 20
-2602.37925
 11
23622.75475
 21
-5935.7125
  0
LINE
  8
┌▓È6
 10
23856.08825
 20
-2602.37925
 11
23856.08825
 21
-5935.7125
  0
LINE
  8
┌▓È6
 10
23739.4215
 20
-6169.046
 11
23739.4215
 21
-11035.71325
  0
LINE
  8
┌▓È6
 10
23622.75475
 20
-6169.046
 11
23622.75475
 21
-11035.71325
  0
LINE
  8
┌▓È6
 10
23856.08825
 20
-6169.046
 11
23856.08825
 21
-11035.71325
  0
LINE
  8
┌▓È6
 10
3526.826
 20
-9115.84
 11
3978.325
 21
-8554.8865
  0
LINE
  8
┌▓È6
 10
3776.56975
 20
-9026.90825
 11
3942.09225
 21
-8821.25925
  0
LINE
  8
┌▓È6
 10
3574.71225
 20
-8841.09625
 11
3718.88225
 21
-8661.97575
  0
LINE
  8
┌▓È6
 10
6503.04
 20
-9115.84
 11
6954.539
 21
-8554.8865
  0
LINE
  8
┌▓È6
 10
6752.78375
 20
-9026.90825
 11
6918.30625
 21
-8821.25925
  0
LINE
  8
┌▓È6
 10
6550.92625
 20
-8841.09625
 11
6695.09625
 21
-8661.97575
  0
LINE
  8
┌▓È6
 10
9233.94975
 20
-9115.84
 11
9685.44875
 21
-8554.8865
  0
LINE
  8
┌▓È6
 10
9483.6935
 20
-9026.90825
 11
9649.216
 21
-8821.25925
  0
LINE
  8
┌▓È6
 10
9281.836
 20
-8841.09625
 11
9426.006
 21
-8661.97575
  0
LINE
  8
┌▓È6
 10
9233.94975
 20
-4512.6095
 11
9685.44875
 21
-3951.656
  0
LINE
  8
┌▓È6
 10
9483.6935
 20
-4423.67775
 11
9649.216
 21
-4218.02875
  0
LINE
  8
┌▓È6
 10
9281.836
 20
-4237.86575
 11
9426.006
 21
-4058.74525
  0
LINE
  8
┌▓È6
 10
6516.23275
 20
-4512.6095
 11
6967.73175
 21
-3951.656
  0
LINE
  8
┌▓È6
 10
6765.9765
 20
-4423.67775
 11
6931.499
 21
-4218.02875
  0
LINE
  8
┌▓È6
 10
6564.119
 20
-4237.86575
 11
6708.289
 21
-4058.74525
  0
LINE
  8
┌▓È6
 10
3547.8525
 20
-4512.6095
 11
3999.3515
 21
-3951.656
  0
LINE
  8
┌▓È6
 10
3797.59625
 20
-4423.67775
 11
3963.11875
 21
-4218.02875
  0
LINE
  8
┌▓È6
 10
3595.73875
 20
-4237.86575
 11
3739.90875
 21
-4058.74525
  0
LINE
  8
┌▓È6
 10
-16318.50225
 20
-8035.71225
 11
-22318.502
 21
-8035.71225
  0
LINE
  8
┌▓È6
 10
-11243.12975
 20
-9035.7125
 11
-11243.13
 21
-11035.7125
  0
POLYLINE
  8
┌▓È6
  6
DOT
 66
     1
 70
     1
  0
VERTEX
  8
┌▓È6
 10
-6055.514
 20
-8949.81675
  0
VERTEX
  8
┌▓È6
 10
-4752.355
 20
-8949.81675
  0
VERTEX
  8
┌▓È6
 10
-4752.355
 20
-8996.7825
  0
VERTEX
  8
┌▓È6
 10
-6055.514
 20
-8996.7825
  0
SEQEND
  0
LINE
  8
┌▓È6
 10
-4719.4745
 20
-8465.7125
 11
-6079.4745
 21
-8465.7125
  0
POLYLINE
  8
┌▓È6
  6
DOT
 66
     1
 70
     1
  0
VERTEX
  8
┌▓È6
 10
-6055.514
 20
-9613.15
  0
VERTEX
  8
┌▓È6
 10
-4752.355
 20
-9613.15
  0
VERTEX
  8
┌▓È6
 10
-4752.355
 20
-9660.11575
  0
VERTEX
  8
┌▓È6
 10
-6055.514
 20
-9660.11575
  0
SEQEND
  0
LINE
  8
┌▓È6
 10
-4719.4745
 20
-9129.04575
 11
-6079.4745
 21
-9129.04575
  0
POLYLINE
  8
┌▓È6
  6
DOT
 66
     1
 70
     1
  0
VERTEX
  8
┌▓È6
 10
-6055.514
 20
-10259.8165
  0
VERTEX
  8
┌▓È6
 10
-4752.355
 20
-10259.8165
  0
VERTEX
  8
┌▓È6
 10
-4752.355
 20
-10306.78225
  0
VERTEX
  8
┌▓È6
 10
-6055.514
 20
-10306.78225
  0
SEQEND
  0
LINE
  8
┌▓È6
 10
-4719.4745
 20
-9775.71225
 11
-6079.4745
 21
-9775.71225
  0
POLYLINE
  8
┌▓È6
  6
DOT
 66
     1
 70
     1
  0
VERTEX
  8
┌▓È6
 10
-6055.514
 20
-10906.48325
  0
VERTEX
  8
┌▓È6
 10
-4752.355
 20
-10906.48325
  0
VERTEX
  8
┌▓È6
 10
-4752.355
 20
-10953.449
  0
VERTEX
  8
┌▓È6
 10
-6055.514
 20
-10953.449
  0
SEQEND
  0
LINE
  8
┌▓È6
 10
-4719.4745
 20
-10422.379
 11
-6079.4745
 21
-10422.379
  0
TEXT
  7
TextStyle03
  8
òÂÄÜ
 10
-3195.0
 20
18025.0
  1
érüüéPü^éRéO
 40
400.0
 72
     5
 11
-395.0
 21
18025.0
  0
TEXT
  7
TextStyle03
  8
òÂÄÜ
 10
24480.0
 20
18025.0
  1
érüüéPü^éRéO
 40
400.0
 72
     5
 11
27280.0
 21
18025.0
  0
TEXT
  7
TextStyle03
  8
òÂÄÜ
 10
-3195.0
 20
815.0
  1
érüüéPü^éRéO
 40
400.0
 72
     5
 11
-395.0
 21
815.0
  0
TEXT
  7
TextStyle03
  8
òÂÄÜ
 10
18300.0
 20
-16625.0
  1
É}û╩û╝
 40
250.0
 72
     5
 11
19110.0
 21
-16625.0
  0
TEXT
  7
TextStyle03
  8
òÂÄÜ
 10
25050.0
 20
-17825.0
  1
çé
 40
250.0
 72
     5
 11
25300.0
 21
-17825.0
  0
TEXT
  7
TextStyle03
  8
òÂÄÜ
 10
25050.0
 20
-16625.0
  1
ÅkÄ┌
 40
250.0
 72
     5
 11
25580.0
 21
-16625.0
  0
TEXT
  7
TextStyle03
  8
òÂÄÜ
 10
25995.0
 20
-17175.0
  1
1/30
 40
300.0
 72
     5
 11
26685.0
 21
-17175.0
  0
TEXT
  7
TextStyle03
  8
òÂÄÜ
 10
-23320.0
 20
18117.5
  1
âTâvâëâCÄ║ü@Æ¦î╦ÆI
 40
400.0
 72
     5
 11
-19080.0
 21
18117.5
  0
TEXT
  7
TextStyle03
  8
òÂÄÜ
 10
-23317.5
 20
815.0
  1
âTâvâëâCÄ║ü@ìýïãæõ
 40
400.0
 72
     5
 11
-19077.5
 21
815.0
  0
TEXT
  7
TextStyle03
  8
òÂÄÜ
 10
-27100.0
 20
18025.0
  1
érü|éP
 40
400.0
 72
     5
 11
-25740.0
 21
18025.0
  0
TEXT
  7
TextStyle03
  8
òÂÄÜ
 10
572.5
 20
18025.0
  1
érü|éQ
 40
400.0
 72
     5
 11
1932.5
 21
18025.0
  0
TEXT
  7
TextStyle03
  8
òÂÄÜ
 10
-27100.0
 20
815.0
  1
érü|éR
 40
400.0
 72
     5
 11
-25740.0
 21
815.0
  0
TEXT
  7
TextStyle03
  8
òÂÄÜ
 10
19715.0
 20
-17125.0
  1
ëãï´Å┌ìÎÉ}üiéRüj
 40
400.0
 72
     5
 11
23475.0
 21
-17125.0
  0
TEXT
  7
TextStyle03
  8
òÂÄÜ
 10
-40842.5
 20
11105.0
  1
ÉàÉÏÆI
 40
300.0
 72
     5
 11
-39867.5
 21
11105.0
  0
TEXT
  7
TextStyle03
  8
òÂÄÜ
 10
-46231.25
 20
10395.0
  1
öÓüF╬▀Ï┤¢├┘ë╗Å¤ìçö┬
 40
300.0
 72
     5
 11
-43062.5
 21
10395.0
  0
TEXT
  7
TextStyle03
  8
òÂÄÜ
 10
2520.0
 20
9555.0
  1
ê°ÅoéÁ
 40
300.0
 72
     5
 11
3495.0
 21
9555.0
  0
TEXT
  7
TextStyle03
  8
òÂÄÜ
 10
4955.0
 20
6700.0
  1
âIü[âvâô
 40
300.0
 72
     5
 11
6267.5
 21
6700.0
  0
TEXT
  7
TextStyle03
  8
òÂÄÜ
 10
10655.0
 20
6700.0
  1
âIü[âvâô
 40
300.0
 72
     5
 11
11967.5
 21
6700.0
  0
TEXT
  7
TextStyle03
  8
òÂÄÜ
 10
9622.5
 20
9602.5
  1
¢├¦┌¢Î▓ã¦©Ì
 40
300.0
 72
     5
 11
11460.0
 21
9602.5
  0
TEXT
  7
TextStyle03
  8
òÂÄÜ
 10
9622.5
 20
9212.5
  1
t1.0
 40
300.0
 72
     5
 11
10278.75
 21
9212.5
  0
TEXT
  7
TextStyle03
  8
òÂÄÜ
 10
7995.0
 20
6692.5
  1
âIü[âvâô
 40
300.0
 72
     5
 11
9307.5
 21
6692.5
  0
TEXT
  7
TextStyle03
  8
òÂÄÜ
 10
18185.0
 20
9602.5
  1
¢├¦┌¢Î▓ã¦©Ì
 40
300.0
 72
     5
 11
20022.5
 21
9602.5
  0
TEXT
  7
TextStyle03
  8
òÂÄÜ
 10
18185.0
 20
9212.5
  1
t1.0
 40
300.0
 72
     5
 11
18841.25
 21
9212.5
  0
TEXT
  7
TextStyle03
  8
òÂÄÜ
 10
15172.5
 20
7385.0
  1
æñö┬
 40
300.0
 72
     5
 11
15810.0
 21
7385.0
  0
TEXT
  7
TextStyle03
  8
òÂÄÜ
 10
4357.5
 20
817.5
  1
âTâvâëâCÄ║ü@ÆI
 40
400.0
 72
     5
 11
7637.5
 21
817.5
  0
TEXT
  7
TextStyle03
  8
òÂÄÜ
 10
575.0
 20
817.5
  1
érü|éS
 40
400.0
 72
     5
 11
1935.0
 21
817.5
  0
TEXT
  7
TextStyle03
  8
òÂÄÜ
 10
24480.0
 20
815.0
  1
érüüéPü^éRéO
 40
400.0
 72
     5
 11
27280.0
 21
815.0
  0
TEXT
  7
TextStyle03
  8
òÂÄÜ
 10
25665.0
 20
-18525.0
  1
éOéSéO
 40
400.0
 72
     5
 11
27025.0
 21
-18525.0
  0
TEXT
  7
TextStyle03
  8
òÂÄÜ
 10
4990.0
 20
-665.0
  1
òðèJé½ÂÌÎ¢î╦üiûÏÉ╗üj
 40
300.0
 72
     5
 11
8327.5
 21
-665.0
  0
TEXT
  7
TextStyle03
  8
òÂÄÜ
 10
4990.0
 20
-1055.0
  1
─░Ê▓ t3
 40
300.0
 72
     5
 11
6152.5
 21
-1055.0
  0
TEXT
  7
TextStyle03
  8
òÂÄÜ
 10
4990.0
 20
-1445.0
  1
ÄØÅoéÁ╦¦╝Ì
 40
300.0
 72
     5
 11
6658.75
 21
-1445.0
  0
TEXT
  7
TextStyle03
  8
òÂÄÜ
 10
4990.0
 20
-1835.0
  1
öcÄÞ
 40
300.0
 72
     5
 11
5627.5
 21
-1835.0
  0
TEXT
  7
TextStyle03
  8
òÂÄÜ
 10
11047.5
 20
-665.0
  1
ê°êßéóÂÌÎ¢î╦üiûÏÉ╗üj
 40
300.0
 72
     5
 11
14385.0
 21
-665.0
  0
TEXT
  7
TextStyle03
  8
òÂÄÜ
 10
11047.5
 20
-1055.0
  1
─░Ê▓ t3
 40
300.0
 72
     5
 11
12210.0
 21
-1055.0
  0
TEXT
  7
TextStyle03
  8
òÂÄÜ
 10
11047.5
 20
-1445.0
  1
éu┌░┘üAî╦ÄÈ
 40
300.0
 72
     5
 11
12866.25
 21
-1445.0
  0
TEXT
  7
TextStyle03
  8
òÂÄÜ
 10
11047.5
 20
-1835.0
  1
Æñì×é¦ê°ÄÞüAìÀì×é¦é╦éÂÆ¸éÞ
 40
300.0
 72
     5
 11
15397.5
 21
-1835.0
  0
TEXT
  7
TextStyle03
  8
òÂÄÜ
 10
20315.0
 20
-680.0
  1
â|âèìçö┬╠Î»╝¡
 40
300.0
 72
     5
 11
22490.0
 21
-680.0
  0
TEXT
  7
TextStyle03
  8
òÂÄÜ
 10
-21372.5
 20
-7667.5
  1
¢├¦┌¢Î▓ã¦©Ì
 40
300.0
 72
     5
 11
-19535.0
 21
-7667.5
  0
TEXT
  7
TextStyle03
  8
òÂÄÜ
 10
-20408.75
 20
-8010.0
  1
t1.0
 40
300.0
 72
     5
 11
-19752.5
 21
-8010.0
  0
TEXT
  7
TextStyle03
  8
òÂÄÜ
 10
-19428.75
 20
-11837.5
  1
ê°ÅoéÁ éQÆi
 40
300.0
 72
     5
 11
-17610.0
 21
-11837.5
  0
TEXT
  7
TextStyle03
  8
òÂÄÜ
 10
-20713.75
 20
-12295.0
  1
ê°ÅoéÁ éSÆi
 40
300.0
 72
     5
 11
-18895.0
 21
-12295.0
  0
TEXT
  7
TextStyle03
  8
òÂÄÜ
 10
-15783.75
 20
-12295.0
  1
ê°ÅoéÁ éSÆi
 40
300.0
 72
     5
 11
-13965.0
 21
-12295.0
  0
TEXT
  7
TextStyle03
  8
òÂÄÜ
 10
-19202.5
 20
-10322.5
  1
âIü[âvâô
 40
300.0
 72
     5
 11
-17890.0
 21
-10322.5
  0
TEXT
  7
TextStyle03
  8
òÂÄÜ
 10
-5900.0
 20
-12295.0
  1
ê°ÅoéÁòöò¬
 40
300.0
 72
     5
 11
-4250.0
 21
-12295.0
  0
TEXT
  7
TextStyle03
  8
òÂÄÜ
 10
-10980.0
 20
-12295.0
  1
âVâôâNòöò¬
 40
300.0
 72
     5
 11
-9330.0
 21
-12295.0
  0
TEXT
  7
TextStyle03
  8
òÂÄÜ
 10
-10900.0
 20
-10322.5
  1
âIü[âvâô
 40
300.0
 72
     5
 11
-9587.5
 21
-10322.5
  0
TEXT
  7
TextStyle03
  8
òÂÄÜ
 10
-8600.0
 20
14067.5
  1
öÓüF╬▀Ï┤¢├┘ë╗Å¤ìçö┬
 40
300.0
 72
     5
 11
-5431.25
 21
14067.5
  0
TEXT
  7
TextStyle03
  8
òÂÄÜ
 10
-6730.0
 20
13255.0
  1
└Ì╬ÌïÓò¿
 40
300.0
 72
     5
 11
-5417.5
 21
13255.0
  0
TEXT
  7
TextStyle03
  8
òÂÄÜ
 10
-18928.75
 20
10357.5
  1
öÓüF╬▀Ï┤¢├┘ë╗Å¤ìçö┬
 40
300.0
 72
     5
 11
-15760.0
 21
10357.5
  0
TEXT
  7
TextStyle03
  8
òÂÄÜ
 10
-6662.5
 20
9110.0
  1
ë║Æié═
 40
300.0
 72
     5
 11
-5687.5
 21
9110.0
  0
TEXT
  7
TextStyle03
  8
òÂÄÜ
 10
-7675.0
 20
8720.0
  1
ÊÎð¦ë╗Å¤ìçö┬
 40
300.0
 72
     5
 11
-5687.5
 21
8720.0
  0
TEXT
  7
TextStyle03
  8
òÂÄÜ
 10
-13887.5
 20
4150.0
  1
W=1,500
 40
300.0
 72
     5
 11
-12725.0
 21
4150.0
  0
TEXT
  7
TextStyle03
  8
òÂÄÜ
 10
-13887.5
 20
3760.0
  1
H=900
 40
300.0
 72
     5
 11
-13062.5
 21
3760.0
  0
TEXT
  7
TextStyle03
  8
òÂÄÜ
 10
-13887.5
 20
3370.0
  1
öÓ4ûç
 40
300.0
 72
     5
 11
-13081.25
 21
3370.0
  0
TEXT
  7
TextStyle03
  8
òÂÄÜ
 10
-16215.0
 20
4790.0
  1
éréP-éQ
 40
300.0
 72
     5
 11
-15071.25
 21
4790.0
  0
TEXT
  7
TextStyle03
  8
òÂÄÜ
 10
-16220.0
 20
4150.0
  1
W=2,100
 40
300.0
 72
     5
 11
-15057.5
 21
4150.0
  0
TEXT
  7
TextStyle03
  8
òÂÄÜ
 10
-16220.0
 20
3760.0
  1
H=900
 40
300.0
 72
     5
 11
-15395.0
 21
3760.0
  0
TEXT
  7
TextStyle03
  8
òÂÄÜ
 10
-16220.0
 20
3370.0
  1
öÓ5ûç
 40
300.0
 72
     5
 11
-15413.75
 21
3370.0
  0
TEXT
  7
TextStyle03
  8
òÂÄÜ
 10
-11552.5
 20
4150.0
  1
W=1,200
 40
300.0
 72
     5
 11
-10390.0
 21
4150.0
  0
TEXT
  7
TextStyle03
  8
òÂÄÜ
 10
-11552.5
 20
3760.0
  1
H=900
 40
300.0
 72
     5
 11
-10727.5
 21
3760.0
  0
TEXT
  7
TextStyle03
  8
òÂÄÜ
 10
-11552.5
 20
3370.0
  1
öÓ3ûç
 40
300.0
 72
     5
 11
-10746.25
 21
3370.0
  0
TEXT
  7
TextStyle03
  8
òÂÄÜ
 10
-22985.0
 20
4150.0
  1
W=1,200
 40
300.0
 72
     5
 11
-21822.5
 21
4150.0
  0
TEXT
  7
TextStyle03
  8
òÂÄÜ
 10
-22985.0
 20
3760.0
  1
H=700
 40
300.0
 72
     5
 11
-22160.0
 21
3760.0
  0
TEXT
  7
TextStyle03
  8
òÂÄÜ
 10
-22985.0
 20
3370.0
  1
öÓ3ûç
 40
300.0
 72
     5
 11
-22178.75
 21
3370.0
  0
TEXT
  7
TextStyle03
  8
òÂÄÜ
 10
-20652.5
 20
4150.0
  1
W=900
 40
300.0
 72
     5
 11
-19827.5
 21
4150.0
  0
TEXT
  7
TextStyle03
  8
òÂÄÜ
 10
-20652.5
 20
3760.0
  1
H=700
 40
300.0
 72
     5
 11
-19827.5
 21
3760.0
  0
TEXT
  7
TextStyle03
  8
òÂÄÜ
 10
-20652.5
 20
3370.0
  1
öÓ2ûç
 40
300.0
 72
     5
 11
-19846.25
 21
3370.0
  0
TEXT
  7
TextStyle03
  8
òÂÄÜ
 10
4355.0
 20
18117.5
  1
âTâvâëâCÄ║ü@ìýïãæõ
 40
400.0
 72
     5
 11
8595.0
 21
18117.5
  0
TEXT
  7
TextStyle03
  8
òÂÄÜ
 10
-22807.5
 20
4790.0
  1
éréP-éP
 40
300.0
 72
     5
 11
-21663.75
 21
4790.0
  0
TEXT
  7
TextStyle03
  8
òÂÄÜ
 10
-21345.0
 20
4790.0
  1
(W=2,100)
 40
300.0
 72
     5
 11
-19845.0
 21
4790.0
  0
TEXT
  7
TextStyle03
  8
òÂÄÜ
 10
-13715.0
 20
4790.0
  1
éréP-éR
 40
300.0
 72
     5
 11
-12571.25
 21
4790.0
  0
TEXT
  7
TextStyle03
  8
òÂÄÜ
 10
-12247.5
 20
4790.0
  1
(W=2,700)
 40
300.0
 72
     5
 11
-10747.5
 21
4790.0
  0
TEXT
  7
TextStyle03
  8
òÂÄÜ
 10
21550.0
 20
10032.5
  1
âVâôâNüEôVö┬ïñ¢├¦┌¢ t1.0
 40
300.0
 72
     5
 11
25581.25
 21
10032.5
  0
TEXT
  7
TextStyle03
  8
òÂÄÜ
 10
9130.0
 20
10480.0
  1
âVâôâNüEôVö┬ïñ¢├¦┌¢ t1.0
 40
300.0
 72
     5
 11
13161.25
 21
10480.0
  0
TEXT
  7
TextStyle03
  8
òÂÄÜ
 10
12230.0
 20
2212.5
  1
î®éªè|é®éÞòöé═âüâëâ~âôë╗Å¤ö┼éãéÀéÚüBüiæñö┬üEë£ö┬üEê°ÅoïñüjüAæ╝é═â|âèâGâXâeâïìçö┬üB
 40
300.0
 72
     5
 11
26030.0
 21
2212.5
  0
TEXT
  7
TextStyle03
  8
òÂÄÜ
 10
-15445.0
 20
-14987.5
  1
î®éªè|é®éÞòöé═âüâëâ~âôë╗Å¤ö┼éãéÀéÚüBüiæñö┬üEë£ö┬üEê°ÅoïñüjüAæ╝é═â|âèâGâXâeâïìçö┬üB
 40
300.0
 72
     5
 11
-1645.0
 21
-14987.5
  0
TEXT
  7
TextStyle03
  8
òÂÄÜ
 10
-21617.5
 20
-7087.5
  1
ÊÎð¦ë╗Å¤ö┬ô\
 40
300.0
 72
     5
 11
-19630.0
 21
-7087.5
  0
TEXT
  7
TextStyle03
  8
òÂÄÜ
 10
-15530.0
 20
-7580.0
  1
âVâôâNüEôVö┬ïñ¢├¦┌¢ t1.0
 40
300.0
 72
     5
 11
-11498.75
 21
-7580.0
  0
TEXT
  7
TextStyle03
  8
òÂÄÜ
 10
20982.5
 20
-14947.5
  1
î®éªè|é®éÞòöò¬üF╬▀Ï┤¢├┘ìçö┬
 40
300.0
 72
     5
 11
25501.25
 21
-14947.5
  0
TEXT
  7
TextStyle03
  8
òÂÄÜ
 10
-6692.5
 20
2260.0
  1
Æ¦î╦ÆIòöò¬üF╬▀Ï┤¢├┘ìçö┬
 40
300.0
 72
     5
 11
-2848.75
 21
2260.0
  0
TEXT
  7
TextStyle03
  8
òÂÄÜ
 10
-10040.0
 20
10987.5
  1
ûkÆ[é╠é¦
 40
300.0
 72
     5
 11
-8727.5
 21
10987.5
  0
TEXT
  7
TextStyle03
  8
òÂÄÜ
 10
-10040.0
 20
10597.5
  1
æñö┬üFâPâCâJâïö┬ ▒6
 40
300.0
 72
     5
 11
-6852.5
 21
10597.5
  0
TEXT
  7
TextStyle03
  8
òÂÄÜ
 10
-10040.0
 20
10207.5
  1
(öMò█îýùpé╔Ådé╦ô\éÞ)
 40
300.0
 72
     5
 11
-6683.75
 21
10207.5
  0
LINE
  8
Æ╩éÞÉc
 10
-38522.18125
 20
13340.23675
 11
-39855.51475
 21
14673.57
  0
LINE
  8
Æ╩éÞÉc
 10
-39855.51475
 20
11840.23675
 11
-38522.18125
 21
13340.23675
  0
POLYLINE
  8
Æ╩éÞÉc
 66
     1
  0
VERTEX
  8
Æ╩éÞÉc
 10
-44022.18125
 20
14673.57
  0
VERTEX
  8
Æ╩éÞÉc
 10
-45522.1815
 20
13340.23675
  0
VERTEX
  8
Æ╩éÞÉc
 10
-44022.181
 20
11840.23675
  0
VERTEX
  8
Æ╩éÞÉc
 10
-42522.18125
 20
13340.23675
  0
VERTEX
  8
Æ╩éÞÉc
 10
-44022.18125
 20
14673.57
  0
SEQEND
  0
POLYLINE
  8
Æ╩éÞÉc
 66
     1
  0
VERTEX
  8
Æ╩éÞÉc
 10
-41188.848
 20
14673.57
  0
VERTEX
  8
Æ╩éÞÉc
 10
-42522.18125
 20
13340.23675
  0
VERTEX
  8
Æ╩éÞÉc
 10
-41188.848
 20
11840.23675
  0
VERTEX
  8
Æ╩éÞÉc
 10
-39855.515
 20
13340.23675
  0
VERTEX
  8
Æ╩éÞÉc
 10
-41188.848
 20
14673.57
  0
SEQEND
  0
LINE
  8
Æ╩éÞÉc
 10
7106.67975
 20
5840.23675
 11
10190.013
 21
8173.57
  0
LINE
  8
Æ╩éÞÉc
 10
7106.67975
 20
8173.57
 11
10190.013
 21
5840.23675
  0
LINE
  8
Æ╩éÞÉc
 10
10270.013
 20
8173.57
 11
12190.01325
 21
5840.23675
  0
LINE
  8
Æ╩éÞÉc
 10
12190.01325
 20
8173.57
 11
10270.013
 21
5840.23675
  0
LINE
  8
Æ╩éÞÉc
 10
4273.34625
 20
8173.57
 11
7023.3465
 21
5840.23675
  0
LINE
  8
Æ╩éÞÉc
 10
7023.3465
 20
8173.57
 11
4273.34625
 21
5840.23675
  0
POLYLINE
  8
Æ╩éÞÉc
 66
     1
  0
VERTEX
  8
Æ╩éÞÉc
 10
5260.6965
 20
-6169.04575
  0
VERTEX
  8
Æ╩éÞÉc
 10
2260.6965
 20
-8602.37925
  0
VERTEX
  8
Æ╩éÞÉc
 10
5260.6965
 20
-11035.713
  0
SEQEND
  0
POLYLINE
  8
Æ╩éÞÉc
 66
     1
  0
VERTEX
  8
Æ╩éÞÉc
 10
5260.6965
 20
-2602.379
  0
VERTEX
  8
Æ╩éÞÉc
 10
2260.6965
 20
-4269.04575
  0
VERTEX
  8
Æ╩éÞÉc
 10
5260.6965
 20
-5935.7125
  0
SEQEND
  0
LINE
  8
Æ╩éÞÉc
 10
-19651.8355
 20
-9035.7125
 11
-17429.61325
 21
-11035.7125
  0
LINE
  8
Æ╩éÞÉc
 10
-19651.8355
 20
-11035.7125
 11
-17429.61325
 21
-9035.7125
  0
POLYLINE
  8
Æ╩éÞÉc
 66
     1
  0
VERTEX
  8
Æ╩éÞÉc
 10
-14573.4175
 20
14673.57
  0
VERTEX
  8
Æ╩éÞÉc
 10
-13323.41725
 20
13256.90325
  0
VERTEX
  8
Æ╩éÞÉc
 10
-14573.41775
 20
11840.23675
  0
VERTEX
  8
Æ╩éÞÉc
 10
-15823.41725
 20
13256.90325
  0
VERTEX
  8
Æ╩éÞÉc
 10
-14573.4175
 20
14673.57
  0
SEQEND
  0
POLYLINE
  8
Æ╩éÞÉc
 66
     1
  0
VERTEX
  8
Æ╩éÞÉc
 10
-12073.4175
 20
14673.57
  0
VERTEX
  8
Æ╩éÞÉc
 10
-10823.41725
 20
13256.90325
  0
VERTEX
  8
Æ╩éÞÉc
 10
-12073.41775
 20
11840.23675
  0
VERTEX
  8
Æ╩éÞÉc
 10
-13323.41725
 20
13256.90325
  0
VERTEX
  8
Æ╩éÞÉc
 10
-12073.4175
 20
14673.57
  0
SEQEND
  0
LINE
  8
Æ╩éÞÉc
 10
-24591.20475
 20
13590.23675
 11
-23257.8715
 21
14673.57
  0
POLYLINE
  8
Æ╩éÞÉc
 66
     1
  0
VERTEX
  8
Æ╩éÞÉc
 10
-21924.53825
 20
14673.57
  0
VERTEX
  8
Æ╩éÞÉc
 10
-20591.205
 20
13590.2365
  0
VERTEX
  8
Æ╩éÞÉc
 10
-21924.53825
 20
12506.9035
  0
VERTEX
  8
Æ╩éÞÉc
 10
-23257.8715
 20
13590.23675
  0
VERTEX
  8
Æ╩éÞÉc
 10
-21924.53825
 20
14673.57
  0
SEQEND
  0
POLYLINE
  8
Æ╩éÞÉc
 66
     1
  0
VERTEX
  8
Æ╩éÞÉc
 10
-19091.20525
 20
14673.57
  0
VERTEX
  8
Æ╩éÞÉc
 10
-17591.205
 20
13590.2365
  0
VERTEX
  8
Æ╩éÞÉc
 10
-19091.2055
 20
12506.9035
  0
VERTEX
  8
Æ╩éÞÉc
 10
-20591.205
 20
13590.2365
  0
VERTEX
  8
Æ╩éÞÉc
 10
-19091.20525
 20
14673.57
  0
SEQEND
  0
LINE
  8
Æ╩éÞÉc
 10
-23257.8715
 20
12506.9035
 11
-24591.20475
 21
13590.23675
  0
POLYLINE
  8
Æ╩éÞÉc
 66
     1
  0
VERTEX
  8
Æ╩éÞÉc
 10
19807.63575
 20
8173.57
  0
VERTEX
  8
Æ╩éÞÉc
 10
18474.3025
 20
7173.57
  0
VERTEX
  8
Æ╩éÞÉc
 10
19807.63575
 20
6173.57
  0
SEQEND
  0
POLYLINE
  8
Æ╩éÞÉc
 66
     1
  0
VERTEX
  8
Æ╩éÞÉc
 10
19807.63575
 20
8173.57
  0
VERTEX
  8
Æ╩éÞÉc
 10
21140.96925
 20
7173.57
  0
VERTEX
  8
Æ╩éÞÉc
 10
19807.63575
 20
6173.57
  0
SEQEND
  0
LINE
  8
┌▓È10
 10
-27650.0
 20
18775.0
 11
-27650.0
 21
-15643.565
  0
LINE
  8
┌▓È10
  6
CONTINUOUS
 10
-27650.0
 20
18775.0
 11
27700.0
 21
18775.0
  0
LINE
  8
┌▓È10
 10
25.0
 20
-15643.565
 11
25.0
 21
18775.0
  0
LINE
  8
┌▓È10
  6
CONTINUOUS
 10
27700.0
 20
-15643.565
 11
-27650.0
 21
-15643.565
  0
LINE
  8
┌▓È10
  6
CONTINUOUS
 10
27700.0
 20
-15643.565
 11
27700.0
 21
18775.0
  0
LINE
  8
┌▓È10
 10
-27650.0
 20
1565.7175
 11
27700.0
 21
1565.7175
  0
LINE
  8
┌▓È10
 10
-27650.0
 20
17775.0
 11
27700.0
 21
17775.0
  0
LINE
  8
┌▓È10
 10
-27650.0
 20
565.7175
 11
27700.0
 21
565.7175
  0
LINE
  8
┌▓È10
 10
-24650.0
 20
18775.0
 11
-24650.0
 21
17775.0
  0
LINE
  8
┌▓È10
 10
-24650.0
 20
1565.7175
 11
-24650.0
 21
565.7175
  0
LINE
  8
┌▓È10
 10
3025.0
 20
18775.0
 11
3025.0
 21
17775.0
  0
LINE
  8
┌▓È10
 10
3025.0
 20
1565.7175
 11
3025.0
 21
565.7175
  0
LINE
  8
┌▓È10
 10
3025.0
 20
1565.7175
 11
3025.0
 21
565.7175
  0
LINE
  8
┌▓È11
  6
DASHED
 10
-38522.18125
 20
13380.23675
 11
-45522.1815
 21
13380.23675
  0
LINE
  8
┌▓È11
  6
DASHED
 10
-38522.18125
 20
13300.23675
 11
-45522.1815
 21
13300.23675
  0
LINE
  8
┌▓È11
  6
DASHED
 10
-10823.41725
 20
13296.90325
 11
-15823.417
 21
13296.90325
  0
LINE
  8
┌▓È11
  6
DASHED
 10
-10823.41725
 20
13216.90325
 11
-15823.417
 21
13216.90325
  0
LINE
  8
┌▓È11
  6
DASHED
 10
-24591.205
 20
13550.2365
 11
-17591.205
 21
13550.2365
  0
LINE
  8
┌▓È11
  6
DASHED
 10
-24591.205
 20
13630.2365
 11
-17591.205
 21
13630.2365
  0
LINE
  8
┌▓È13
  6
DOT
 10
10286.6795
 20
8506.9035
 11
10286.6795
 21
8840.23675
  0
LINE
  8
┌▓È13
  6
DOT
 10
11756.68
 20
8506.9035
 11
11756.68
 21
8840.23675
  0
ARC
  8
┌▓È13
  6
DOT
 10
10453.346004
 20
8506.903423
 40
166.666667
 50
180.0
 51
270.00569
  0
ARC
  8
┌▓È13
  6
DOT
 10
11590.013337
 20
8506.903423
 40
166.666667
 50
-89.998654
 51
0.0
  0
LINE
  8
┌▓È13
  6
DOT
 10
10453.34625
 20
8339.1375
 11
11590.01325
 21
8339.1375
  0
LINE
  8
┌▓È13
  6
DOT
 10
9190.013
 20
8506.9035
 11
9190.013
 21
8840.23675
  0
ARC
  8
┌▓È13
  6
DOT
 10
9023.346337
 20
8506.903423
 40
166.666667
 50
-89.998654
 51
0.0
  0
LINE
  8
┌▓È13
  6
DOT
 10
7190.013
 20
8506.9035
 11
7190.013
 21
8840.23675
  0
ARC
  8
┌▓È13
  6
DOT
 10
7356.679504
 20
8506.903423
 40
166.666667
 50
180.0
 51
270.00569
  0
LINE
  8
┌▓È13
  6
DOT
 10
7356.67975
 20
8339.1375
 11
9023.34625
 21
8339.1375
  0
LINE
  8
┌▓È13
  6
DOT
 10
18807.636
 20
8506.9035
 11
18807.636
 21
8840.23675
  0
ARC
  8
┌▓È13
  6
DOT
 10
18974.30269
 20
8506.903423
 40
166.666667
 50
180.0
 51
269.997938
  0
LINE
  8
┌▓È13
  6
DOT
 10
20807.636
 20
8506.9035
 11
20807.636
 21
8840.23675
  0
ARC
  8
┌▓È13
  6
DOT
 10
20640.969524
 20
8506.903423
 40
166.666667
 50
-90.006405
 51
0.0
  0
LINE
  8
┌▓È13
  6
DOT
 10
20640.95075
 20
8340.23675
 11
18974.28425
 21
8340.23675
  0
LINE
  8
┌▓È13
  6
DOT
 10
-11146.4635
 20
-8702.379
 11
-11146.4635
 21
-8369.04575
  0
LINE
  8
┌▓È13
  6
DOT
 10
-9676.463
 20
-8702.379
 11
-9676.463
 21
-8369.04575
  0
ARC
  8
┌▓È13
  6
DOT
 10
-10979.797047
 20
-8702.379077
 40
166.666667
 50
180.0
 51
270.00569
  0
ARC
  8
┌▓È13
  6
DOT
 10
-9843.129714
 20
-8702.379077
 40
166.666667
 50
-89.998654
 51
0.0
  0
LINE
  8
┌▓È13
  6
DOT
 10
-10979.79675
 20
-8870.145
 11
-9843.12975
 21
-8870.145
  0
LINE
  8
┌▓È13
  6
DOT
 10
-19425.95375
 20
-8702.379
 11
-19425.95375
 21
-8369.04575
  0
LINE
  8
┌▓È13
  6
DOT
 10
-17955.95325
 20
-8702.379
 11
-17955.95325
 21
-8369.04575
  0
ARC
  8
┌▓È13
  6
DOT
 10
-19259.287132
 20
-8702.379077
 40
166.666667
 50
180.0
 51
270.00569
  0
ARC
  8
┌▓È13
  6
DOT
 10
-18122.619799
 20
-8702.379077
 40
166.666667
 50
-89.998654
 51
0.0
  0
LINE
  8
┌▓È13
  6
DOT
 10
-19259.287
 20
-8870.145
 11
-18122.62
 21
-8870.145
  0
INSERT
  2
*GRP_0001
  8
Éíû@
 10
0.0
 20
0.0
  0
INSERT
  2
*GRP_0002
  8
Éíû@
 10
0.0
 20
0.0
  0
INSERT
  2
*DIM_0003
  8
Éíû@
 10
0.0
 20
0.0
  0
INSERT
  2
*DIM_0004
  8
Éíû@
 10
0.0
 20
0.0
  0
INSERT
  2
*GRP_0005
  8
Éíû@
 10
0.0
 20
0.0
  0
INSERT
  2
*GRP_0006
  8
Éíû@
 10
0.0
 20
0.0
  0
INSERT
  2
*GRP_0007
  8
Éíû@
 10
0.0
 20
0.0
  0
INSERT
  2
*GRP_0008
  8
Éíû@
 10
0.0
 20
0.0
  0
INSERT
  2
*GRP_0009
  8
Éíû@
 10
0.0
 20
0.0
  0
INSERT
  2
*DIM_0010
  8
Éíû@
 10
0.0
 20
0.0
  0
INSERT
  2
*DIM_0011
  8
Éíû@
 10
0.0
 20
0.0
  0
INSERT
  2
*DIM_0012
  8
Éíû@
 10
0.0
 20
0.0
  0
INSERT
  2
*DIM_0013
  8
Éíû@
 10
0.0
 20
0.0
  0
INSERT
  2
*DIM_0014
  8
Éíû@
 10
0.0
 20
0.0
  0
INSERT
  2
*DIM_0015
  8
Éíû@
 10
0.0
 20
0.0
  0
INSERT
  2
*DIM_0016
  8
Éíû@
 10
0.0
 20
0.0
  0
INSERT
  2
*DIM_0017
  8
Éíû@
 10
0.0
 20
0.0
  0
INSERT
  2
*DIM_0018
  8
Éíû@
 10
0.0
 20
0.0
  0
INSERT
  2
*DIM_0019
  8
Éíû@
 10
0.0
 20
0.0
  0
INSERT
  2
*DIM_0020
  8
Éíû@
 10
0.0
 20
0.0
  0
INSERT
  2
*DIM_0021
  8
Éíû@
 10
0.0
 20
0.0
  0
INSERT
  2
*DIM_0022
  8
Éíû@
 10
0.0
 20
0.0
  0
INSERT
  2
*DIM_0023
  8
Éíû@
 10
0.0
 20
0.0
  0
INSERT
  2
*DIM_0024
  8
Éíû@
 10
0.0
 20
0.0
  0
INSERT
  2
*DIM_0025
  8
Éíû@
 10
0.0
 20
0.0
  0
INSERT
  2
*DIM_0026
  8
Éíû@
 10
0.0
 20
0.0
  0
INSERT
  2
*DIM_0027
  8
Éíû@
 10
0.0
 20
0.0
  0
INSERT
  2
*DIM_0028
  8
Éíû@
 10
0.0
 20
0.0
  0
INSERT
  2
*DIM_0029
  8
Éíû@
 10
0.0
 20
0.0
  0
INSERT
  2
*DIM_0030
  8
Éíû@
 10
0.0
 20
0.0
  0
INSERT
  2
*DIM_0031
  8
Éíû@
 10
0.0
 20
0.0
  0
INSERT
  2
*DIM_0032
  8
Éíû@
 10
0.0
 20
0.0
  0
INSERT
  2
*DIM_0033
  8
Éíû@
 10
0.0
 20
0.0
  0
INSERT
  2
*DIM_0034
  8
Éíû@
 10
0.0
 20
0.0
  0
INSERT
  2
*DIM_0035
  8
Éíû@
 10
0.0
 20
0.0
  0
INSERT
  2
*DIM_0036
  8
Éíû@
 10
0.0
 20
0.0
  0
INSERT
  2
*DIM_0037
  8
Éíû@
 10
0.0
 20
0.0
  0
INSERT
  2
*DIM_0038
  8
Éíû@
 10
0.0
 20
0.0
  0
INSERT
  2
*DIM_0039
  8
Éíû@
 10
0.0
 20
0.0
  0
INSERT
  2
*DIM_0040
  8
Éíû@
 10
0.0
 20
0.0
  0
INSERT
  2
*DIM_0041
  8
Éíû@
 10
0.0
 20
0.0
  0
INSERT
  2
*DIM_0042
  8
Éíû@
 10
0.0
 20
0.0
  0
INSERT
  2
*DIM_0043
  8
Éíû@
 10
0.0
 20
0.0
  0
INSERT
  2
*DIM_0044
  8
Éíû@
 10
0.0
 20
0.0
  0
INSERT
  2
*DIM_0045
  8
Éíû@
 10
0.0
 20
0.0
  0
INSERT
  2
*DIM_0046
  8
Éíû@
 10
0.0
 20
0.0
  0
INSERT
  2
*DIM_0047
  8
Éíû@
 10
0.0
 20
0.0
  0
INSERT
  2
*DIM_0048
  8
Éíû@
 10
0.0
 20
0.0
  0
INSERT
  2
*DIM_0049
  8
Éíû@
 10
0.0
 20
0.0
  0
INSERT
  2
*DIM_0050
  8
Éíû@
 10
0.0
 20
0.0
  0
INSERT
  2
*DIM_0051
  8
Éíû@
 10
0.0
 20
0.0
  0
INSERT
  2
*DIM_0052
  8
Éíû@
 10
0.0
 20
0.0
  0
INSERT
  2
*DIM_0053
  8
Éíû@
 10
0.0
 20
0.0
  0
INSERT
  2
*DIM_0054
  8
Éíû@
 10
0.0
 20
0.0
  0
INSERT
  2
*GRP_0055
  8
Éíû@
 10
0.0
 20
0.0
  0
INSERT
  2
*GRP_0056
  8
Éíû@
 10
0.0
 20
0.0
  0
INSERT
  2
*GRP_0057
  8
Éíû@
 10
0.0
 20
0.0
  0
INSERT
  2
*GRP_0058
  8
Éíû@
 10
0.0
 20
0.0
  0
INSERT
  2
*GRP_0059
  8
Éíû@
 10
0.0
 20
0.0
  0
INSERT
  2
*DIM_0060
  8
Éíû@
 10
0.0
 20
0.0
  0
INSERT
  2
*DIM_0061
  8
Éíû@
 10
0.0
 20
0.0
  0
INSERT
  2
*DIM_0062
  8
Éíû@
 10
0.0
 20
0.0
  0
INSERT
  2
*DIM_0063
  8
Éíû@
 10
0.0
 20
0.0
  0
INSERT
  2
*DIM_0064
  8
Éíû@
 10
0.0
 20
0.0
  0
INSERT
  2
*DIM_0065
  8
Éíû@
 10
0.0
 20
0.0
  0
INSERT
  2
*GRP_0066
  8
Éíû@
 10
0.0
 20
0.0
  0
INSERT
  2
*GRP_0067
  8
Éíû@
 10
0.0
 20
0.0
  0
INSERT
  2
*GRP_0068
  8
Éíû@
 10
0.0
 20
0.0
  0
INSERT
  2
*DIM_0069
  8
Éíû@
 10
0.0
 20
0.0
  0
INSERT
  2
*DIM_0070
  8
Éíû@
 10
0.0
 20
0.0
  0
INSERT
  2
*DIM_0071
  8
Éíû@
 10
0.0
 20
0.0
  0
INSERT
  2
*GRP_0078
  8
Éíû@
 10
0.0
 20
0.0
  0
INSERT
  2
*GRP_0079
  8
Éíû@
 10
0.0
 20
0.0
  0
INSERT
  2
*DIM_0080
  8
Éíû@
 10
0.0
 20
0.0
  0
INSERT
  2
*DIM_0081
  8
Éíû@
 10
0.0
 20
0.0
  0
INSERT
  2
*DIM_0082
  8
Éíû@
 10
0.0
 20
0.0
  0
INSERT
  2
*DIM_0083
  8
Éíû@
 10
0.0
 20
0.0
  0
INSERT
  2
*GRP_0084
  8
Éíû@
 10
0.0
 20
0.0
  0
INSERT
  2
*DIM_0085
  8
Éíû@
 10
0.0
 20
0.0
  0
INSERT
  2
*DIM_0086
  8
Éíû@
 10
0.0
 20
0.0
  0
INSERT
  2
*DIM_0087
  8
Éíû@
 10
0.0
 20
0.0
  0
INSERT
  2
*GRP_0088
  8
Éíû@
 10
0.0
 20
0.0
  0
INSERT
  2
*DIM_0089
  8
Éíû@
 10
0.0
 20
0.0
  0
INSERT
  2
*DIM_0090
  8
Éíû@
 10
0.0
 20
0.0
  0
INSERT
  2
*DIM_0091
  8
Éíû@
 10
0.0
 20
0.0
  0
INSERT
  2
*DIM_0092
  8
Éíû@
 10
0.0
 20
0.0
  0
INSERT
  2
*DIM_0093
  8
Éíû@
 10
0.0
 20
0.0
  0
INSERT
  2
*DIM_0094
  8
Éíû@
 10
0.0
 20
0.0
  0
INSERT
  2
*GRP_0095
  8
Éíû@
 10
0.0
 20
0.0
  0
INSERT
  2
*GRP_0096
  8
Éíû@
 10
0.0
 20
0.0
  0
INSERT
  2
*GRP_0097
  8
Éíû@
 10
0.0
 20
0.0
  0
INSERT
  2
*GRP_0098
  8
Éíû@
 10
0.0
 20
0.0
  0
ENDSEC
  0
EOF
