  0
SECTION
  2
HEADER
  9
$EXTMIN
 10
-29700.0
 20
-21000.0
  9
$EXTMAX
 10
29700.0
 20
21000.0
  9
$PDMODE
 70
    32
  9
$PDSIZE
 40
150.0
  9
$LTSCALE
 40
1000.0
  0
ENDSEC
  0
SECTION
  2
TABLES
  0
TABLE
  2
LTYPE
 70
    15
  0
LTYPE
  2
CONTINUOUS
 70
    64
  3
Ä└É³
 72
    65
 73
     0
 40
0.0
  0
LTYPE
  2
DASHED
 70
    64
  3
öjÉ³A
 72
    65
 73
     2
 40
0.6
 49
0.4
 49
-0.2
  0
LTYPE
  2
DASHEDX2
 70
    64
  3
öjÉ³B
 72
    65
 73
     2
 40
1.3
 49
0.9
 49
-0.4
  0
LTYPE
  2
DASHDOT
 70
    64
  3
éPô_ì¢É³A
 72
    65
 73
     4
 40
0.5375
 49
0.375
 49
-0.05
 49
0.0625
 49
-0.05
  0
LTYPE
  2
DASHDOTX2
 70
    64
  3
éPô_ì¢É³B
 72
    65
 73
     4
 40
1.075
 49
0.75
 49
-0.1
 49
0.125
 49
-0.1
  0
LTYPE
  2
DIVIDE2
 70
    64
  3
éQô_ì¢É³A
 72
    65
 73
     6
 40
0.5125
 49
0.3
 49
-0.0375
 49
0.05
 49
-0.0375
 49
0.05
 49
-0.0375
  0
LTYPE
  2
DIVIDE
 70
    64
  3
éQô_ì¢É³B
 72
    65
 73
     6
 40
1.05
 49
0.55
 49
-0.1
 49
0.1
 49
-0.1
 49
0.1
 49
-0.1
  0
LTYPE
  2
DOT
 70
    64
  3
ô_É³A
 72
    65
 73
     2
 40
0.1125
 49
0.0625
 49
-0.05
  0
LTYPE
  2
DOTX2
 70
    64
  3
ô_É³B
 72
    65
 73
     2
 40
0.275
 49
0.15
 49
-0.125
  0
LTYPE
  2
CONTINUOUS
 70
    64
  3
Ä└É³
 72
    65
 73
     0
 40
0.0
  0
LTYPE
  2
CONTINUOUS
 70
    64
  3
Ä└É³
 72
    65
 73
     0
 40
0.0
  0
LTYPE
  2
CONTINUOUS
 70
    64
  3
Ä└É³
 72
    65
 73
     0
 40
0.0
  0
LTYPE
  2
CONTINUOUS
 70
    64
  3
Ä└É³
 72
    65
 73
     0
 40
0.0
  0
LTYPE
  2
CONTINUOUS
 70
    64
  3
Ä└É³
 72
    65
 73
     0
 40
0.0
  0
LTYPE
  2
CONTINUOUS
 70
    64
  3
Ä└É³
 72
    65
 73
     0
 40
0.0
  0
ENDTAB
  0
TABLE
  2
LAYER
 70
    22
  0
LAYER
  2
┌▓È1
 70
     0
 62
    55
  6
CONTINUOUS
  0
LAYER
  2
┌▓È2
 70
     0
 62
    33
  6
CONTINUOUS
  0
LAYER
  2
┌▓È3
 70
     0
 62
    57
  6
CONTINUOUS
  0
LAYER
  2
┌▓È4
 70
     0
 62
    35
  6
CONTINUOUS
  0
LAYER
  2
┌▓È5
 70
     0
 62
    36
  6
CONTINUOUS
  0
LAYER
  2
┌▓È6
 70
     0
 62
    41
  6
CONTINUOUS
  0
LAYER
  2
òÔÅòÉ³
 70
     0
 62
   -38
  6
DOT
  0
LAYER
  2
òÂÄÜ
 70
     0
 62
    39
  6
CONTINUOUS
  0
LAYER
  2
Æ╩éÞÉc
 70
     0
 62
    40
  6
DASHDOT
  0
LAYER
  2
┌▓È10
 70
     0
 62
    64
  6
CONTINUOUS
  0
LAYER
  2
┌▓È11
 70
     0
 62
    42
  6
CONTINUOUS
  0
LAYER
  2
┌▓È12
 70
     0
 62
    43
  6
CONTINUOUS
  0
LAYER
  2
┌▓È13
 70
     0
 62
    44
  6
CONTINUOUS
  0
LAYER
  2
┌▓È14
 70
     0
 62
    27
  6
CONTINUOUS
  0
LAYER
  2
Éíû@
 70
     0
 62
    46
  6
CONTINUOUS
  0
LAYER
  2
╩»┴¦©Ì
 70
     0
 62
    47
  6
CONTINUOUS
  0
LAYER
  2
┌▓È8
 70
     0
 62
    13
  6
CONTINUOUS
  0
LAYER
  2
┌▓È9
 70
     0
 62
    42
  6
CONTINUOUS
  0
LAYER
  2
┌▓È15
 70
     0
 62
    29
  6
CONTINUOUS
  0
LAYER
  2
┌▓È16
 70
     0
 62
    34
  6
CONTINUOUS
  0
LAYER
  2
┌▓È7
 70
     0
 62
     1
  6
DOT
  0
LAYER
  2
▒¢█»©
 70
     0
 62
    64
  6
CONTINUOUS
  0
ENDTAB
  0
TABLE
  2
STYLE
 70
    10
  0
STYLE
  2
STANDARD
 70
     0
 40
100.0
 41
1.0
 42
100.0
 50
0.0
 71
     0
  3
TXT
  4
BIGFONT
  0
STYLE
  2
TATE
 70
     4
 40
100.0
 41
1.0
 42
100.0
 50
0.0
 71
     0
  3
TXT
  4
BIGFONT
  0
STYLE
  2
TextStyle03
 70
     0
 40
100.0
 41
1.0
 42
100.0
 50
0.0
 71
     0
  3
MONOTXT
  4
BIGFONT
  0
STYLE
  2
TextStyle04
 70
     0
 40
100.0
 41
1.0
 42
100.0
 50
0.0
 71
     0
  3
MONOTXT
  4
BIGFONT
  0
STYLE
  2
TextStyle05
 70
     0
 40
100.0
 41
1.0
 42
100.0
 50
0.0
 71
     0
  3
MONOTXT
  4
BIGFONT
  0
STYLE
  2
TextStyle06
 70
     0
 40
100.0
 41
1.0
 42
100.0
 50
0.0
 71
     0
  3
MONOTXT
  4
BIGFONT
  0
STYLE
  2
TextStyle07
 70
     0
 40
100.0
 41
1.0
 42
100.0
 50
0.0
 71
     0
  3
MONOTXT
  4
BIGFONT
  0
STYLE
  2
TextStyle08
 70
     0
 40
100.0
 41
1.0
 42
100.0
 50
0.0
 71
     0
  3
MONOTXT
  4
BIGFONT
  0
STYLE
  2
TextStyle09
 70
     0
 40
100.0
 41
1.0
 42
100.0
 50
0.0
 71
     0
  3
MONOTXT
  4
BIGFONT
  0
STYLE
  2
TextStyle10
 70
     0
 40
100.0
 41
1.0
 42
100.0
 50
0.0
 71
     0
  3
MONOTXT
  4
BIGFONT
  0
ENDTAB
  0
ENDSEC
  0
SECTION
  2
BLOCKS
  0
BLOCK
  2
*DIM_0001
 70
    65
 10
0.0
 20
0.0
  0
LINE
  8
Éíû@
 10
-20848.688
 20
30781.8575
 11
-21448.688
 21
30781.8575
  0
LINE
  8
Éíû@
 10
-20848.688
 20
30681.8575
 11
-21448.688
 21
30681.8575
  0
LINE
  8
Éíû@
 10
-21448.688
 20
30781.8575
 11
-21448.688
 21
30681.8575
  0
POINT
  8
Éíû@
 10
-21448.688
 20
30781.8575
  0
POINT
  8
Éíû@
 10
-21448.688
 20
30681.8575
  0
TEXT
  7
TextStyle03
  8
Éíû@
  6
CONTINUOUS
 10
-21112.5
 20
30375.625
  1
30
 40
300.0
 50
90.0
 72
     5
 11
-21112.5
 21
30694.375
  0
ENDBLK
  0
BLOCK
  2
*DIM_0002
 70
    65
 10
0.0
 20
0.0
  0
LINE
  8
Éíû@
 10
-20848.688
 20
30681.8575
 11
-21448.688
 21
30681.8575
  0
LINE
  8
Éíû@
 10
-20848.688
 20
29148.5235
 11
-21448.688
 21
29148.5235
  0
LINE
  8
Éíû@
 10
-21448.688
 20
30681.8575
 11
-21448.688
 21
29148.5235
  0
POINT
  8
Éíû@
 10
-21448.688
 20
30681.8575
  0
POINT
  8
Éíû@
 10
-21448.688
 20
29148.5235
  0
TEXT
  7
TextStyle03
  8
Éíû@
  6
CONTINUOUS
 10
-21482.5
 20
29668.75
  1
460
 40
300.0
 50
90.0
 72
     5
 11
-21482.5
 21
30156.25
  0
ENDBLK
  0
BLOCK
  2
*DIM_0003
 70
    65
 10
0.0
 20
0.0
  0
LINE
  8
Éíû@
 10
-20848.688
 20
29148.5235
 11
-21448.688
 21
29148.5235
  0
LINE
  8
Éíû@
 10
-20848.688
 20
29065.19025
 11
-21448.688
 21
29065.19025
  0
LINE
  8
Éíû@
 10
-21448.688
 20
29148.5235
 11
-21448.688
 21
29065.19025
  0
POINT
  8
Éíû@
 10
-21448.688
 20
29065.19025
  0
TEXT
  7
TextStyle03
  8
Éíû@
  6
CONTINUOUS
 10
-21115.0
 20
28963.125
  1
25
 40
300.0
 50
90.0
 72
     5
 11
-21115.0
 21
29281.875
  0
ENDBLK
  0
BLOCK
  2
*DIM_0004
 70
    65
 10
0.0
 20
0.0
  0
LINE
  8
Éíû@
 10
-20848.688
 20
27315.1905
 11
-21448.688
 21
27315.1905
  0
LINE
  8
Éíû@
 10
-20848.688
 20
27231.85725
 11
-21448.688
 21
27231.85725
  0
LINE
  8
Éíû@
 10
-21448.688
 20
27315.1905
 11
-21448.688
 21
27231.85725
  0
POINT
  8
Éíû@
 10
-21448.688
 20
27231.85725
  0
TEXT
  7
TextStyle03
  8
Éíû@
  6
CONTINUOUS
 10
-21087.5
 20
27110.625
  1
25
 40
300.0
 50
90.0
 72
     5
 11
-21087.5
 21
27429.375
  0
ENDBLK
  0
BLOCK
  2
*DIM_0005
 70
    65
 10
0.0
 20
0.0
  0
LINE
  8
Éíû@
 10
-21448.688
 20
26315.19075
 11
-22048.688
 21
26315.19075
  0
LINE
  8
Éíû@
 10
-21448.688
 20
30781.8575
 11
-22048.688
 21
30781.8575
  0
LINE
  8
Éíû@
 10
-22048.688
 20
26315.19075
 11
-22048.688
 21
30781.8575
  0
POINT
  8
Éíû@
 10
-22048.688
 20
26315.19075
  0
POINT
  8
Éíû@
 10
-22048.688
 20
30781.8575
  0
TEXT
  7
TextStyle03
  8
Éíû@
  6
CONTINUOUS
 10
-22082.5
 20
28132.5
  1
1,340
 40
300.0
 50
90.0
 72
     5
 11
-22082.5
 21
28957.5
  0
ENDBLK
  0
BLOCK
  2
*DIM_0006
 70
    65
 10
0.0
 20
0.0
  0
LINE
  8
Éíû@
 10
-20848.688
 20
26398.524
 11
-21448.688
 21
26398.524
  0
LINE
  8
Éíû@
 10
-20848.688
 20
26315.19075
 11
-21448.688
 21
26315.19075
  0
LINE
  8
Éíû@
 10
-21448.688
 20
26398.524
 11
-21448.688
 21
26315.19075
  0
POINT
  8
Éíû@
 10
-21448.688
 20
26315.19075
  0
TEXT
  7
TextStyle03
  8
Éíû@
  6
CONTINUOUS
 10
-21125.0
 20
26218.125
  1
25
 40
300.0
 50
90.0
 72
     5
 11
-21125.0
 21
26536.875
  0
ENDBLK
  0
BLOCK
  2
*DIM_0007
 70
    65
 10
0.0
 20
0.0
  0
LINE
  8
Éíû@
 10
-20848.688
 20
27231.85725
 11
-21448.688
 21
27231.85725
  0
LINE
  8
Éíû@
 10
-20848.688
 20
26398.524
 11
-21448.688
 21
26398.524
  0
LINE
  8
Éíû@
 10
-21448.688
 20
27231.85725
 11
-21448.688
 21
26398.524
  0
POINT
  8
Éíû@
 10
-21448.688
 20
27231.85725
  0
POINT
  8
Éíû@
 10
-21448.688
 20
26398.524
  0
TEXT
  7
TextStyle03
  8
Éíû@
  6
CONTINUOUS
 10
-21482.5
 20
26568.75
  1
250
 40
300.0
 50
90.0
 72
     5
 11
-21482.5
 21
27056.25
  0
ENDBLK
  0
BLOCK
  2
*DIM_0008
 70
    65
 10
0.0
 20
0.0
  0
LINE
  8
Éíû@
 10
-20848.688
 20
28231.857
 11
-21448.688
 21
28231.857
  0
LINE
  8
Éíû@
 10
-20848.688
 20
28148.52375
 11
-21448.688
 21
28148.52375
  0
LINE
  8
Éíû@
 10
-21448.688
 20
28231.857
 11
-21448.688
 21
28148.52375
  0
POINT
  8
Éíû@
 10
-21448.688
 20
28148.52375
  0
TEXT
  7
TextStyle03
  8
Éíû@
  6
CONTINUOUS
 10
-21132.5
 20
28030.625
  1
25
 40
300.0
 50
90.0
 72
     5
 11
-21132.5
 21
28349.375
  0
ENDBLK
  0
BLOCK
  2
*DIM_0009
 70
    65
 10
0.0
 20
0.0
  0
LINE
  8
Éíû@
 10
-20848.688
 20
29065.19025
 11
-21448.688
 21
29065.19025
  0
LINE
  8
Éíû@
 10
-20848.688
 20
28231.857
 11
-21448.688
 21
28231.857
  0
LINE
  8
Éíû@
 10
-21448.688
 20
29065.19025
 11
-21448.688
 21
28231.857
  0
POINT
  8
Éíû@
 10
-21448.688
 20
29065.19025
  0
POINT
  8
Éíû@
 10
-21448.688
 20
28231.857
  0
TEXT
  7
TextStyle03
  8
Éíû@
  6
CONTINUOUS
 10
-21487.5
 20
28401.25
  1
250
 40
300.0
 50
90.0
 72
     5
 11
-21487.5
 21
28888.75
  0
ENDBLK
  0
BLOCK
  2
*DIM_0010
 70
    65
 10
0.0
 20
0.0
  0
LINE
  8
Éíû@
 10
-20848.688
 20
28148.52375
 11
-21448.688
 21
28148.52375
  0
LINE
  8
Éíû@
 10
-20848.688
 20
27315.1905
 11
-21448.688
 21
27315.1905
  0
LINE
  8
Éíû@
 10
-21448.688
 20
28148.52375
 11
-21448.688
 21
27315.1905
  0
POINT
  8
Éíû@
 10
-21448.688
 20
28148.52375
  0
POINT
  8
Éíû@
 10
-21448.688
 20
27315.1905
  0
TEXT
  7
TextStyle03
  8
Éíû@
  6
CONTINUOUS
 10
-21487.5
 20
27483.75
  1
250
 40
300.0
 50
90.0
 72
     5
 11
-21487.5
 21
27971.25
  0
ENDBLK
  0
BLOCK
  2
*DIM_0011
 70
    65
 10
0.0
 20
0.0
  0
LINE
  8
Éíû@
 10
-11523.54425
 20
31854.157
 11
-11523.54425
 21
32654.157
  0
LINE
  8
Éíû@
 10
-9190.211
 20
31854.157
 11
-9190.211
 21
32654.157
  0
LINE
  8
Éíû@
 10
-11523.54425
 20
32654.157
 11
-9190.211
 21
32654.157
  0
POINT
  8
Éíû@
 10
-11523.54425
 20
32654.157
  0
POINT
  8
Éíû@
 10
-9190.211
 20
32654.157
  0
TEXT
  7
TextStyle03
  8
Éíû@
  6
CONTINUOUS
 10
-10686.25
 20
32692.5
  1
700
 40
400.0
 72
     5
 11
-10033.75
 21
32692.5
  0
ENDBLK
  0
BLOCK
  2
*DIM_0012
 70
    65
 10
0.0
 20
0.0
  0
LINE
  8
Éíû@
 10
-19071.6015
 20
32054.157
 11
-19071.6015
 21
32654.157
  0
LINE
  8
Éíû@
 10
-15404.93475
 20
32054.157
 11
-15404.93475
 21
32654.157
  0
LINE
  8
Éíû@
 10
-19071.6015
 20
32654.157
 11
-15404.93475
 21
32654.157
  0
POINT
  8
Éíû@
 10
-19071.6015
 20
32654.157
  0
POINT
  8
Éíû@
 10
-15404.93475
 20
32654.157
  0
TEXT
  7
TextStyle03
  8
Éíû@
  6
CONTINUOUS
 10
-17647.5
 20
32687.5
  1
1,100
 40
300.0
 72
     5
 11
-16822.5
 21
32687.5
  0
ENDBLK
  0
BLOCK
  2
*DIM_0013
 70
    65
 10
0.0
 20
0.0
  0
LINE
  8
Éíû@
 10
-12577.63925
 20
26115.1915
 11
-13177.63925
 21
26115.1915
  0
LINE
  8
Éíû@
 10
-12577.63925
 20
30781.8575
 11
-13177.63925
 21
30781.8575
  0
LINE
  8
Éíû@
 10
-13177.63925
 20
26115.1915
 11
-13177.63925
 21
30781.8575
  0
POINT
  8
Éíû@
 10
-13177.63925
 20
26115.1915
  0
POINT
  8
Éíû@
 10
-13177.63925
 20
30781.8575
  0
TEXT
  7
TextStyle03
  8
Éíû@
  6
CONTINUOUS
 10
-13217.5
 20
28035.0
  1
1,400
 40
300.0
 50
90.0
 72
     5
 11
-13217.5
 21
28860.0
  0
ENDBLK
  0
BLOCK
  2
*DIM_0014
 70
    65
 10
0.0
 20
0.0
  0
LINE
  8
Éíû@
 10
-11977.63925
 20
30681.8575
 11
-12577.63925
 21
30681.8575
  0
LINE
  8
Éíû@
 10
-11977.63925
 20
28948.52425
 11
-12577.63925
 21
28948.52425
  0
LINE
  8
Éíû@
 10
-12577.63925
 20
30681.8575
 11
-12577.63925
 21
28948.52425
  0
POINT
  8
Éíû@
 10
-12577.63925
 20
30681.8575
  0
POINT
  8
Éíû@
 10
-12577.63925
 20
28948.52425
  0
TEXT
  7
TextStyle03
  8
Éíû@
  6
CONTINUOUS
 10
-12617.5
 20
29568.75
  1
520
 40
300.0
 50
90.0
 72
     5
 11
-12617.5
 21
30056.25
  0
ENDBLK
  0
BLOCK
  2
*DIM_0015
 70
    65
 10
0.0
 20
0.0
  0
LINE
  8
Éíû@
 10
-11977.63925
 20
28031.85775
 11
-12577.63925
 21
28031.85775
  0
LINE
  8
Éíû@
 10
-12577.63925
 20
28865.191
 11
-12577.63925
 21
28031.85775
  0
POINT
  8
Éíû@
 10
-12577.63925
 20
28031.85775
  0
TEXT
  7
TextStyle03
  8
Éíû@
  6
CONTINUOUS
 10
-12617.5
 20
28203.75
  1
250
 40
300.0
 50
90.0
 72
     5
 11
-12617.5
 21
28691.25
  0
ENDBLK
  0
BLOCK
  2
*DIM_0016
 70
    65
 10
0.0
 20
0.0
  0
LINE
  8
Éíû@
 10
-11977.63925
 20
27115.19125
 11
-12577.63925
 21
27115.19125
  0
LINE
  8
Éíû@
 10
-12577.63925
 20
27948.5245
 11
-12577.63925
 21
27115.19125
  0
POINT
  8
Éíû@
 10
-12577.63925
 20
27115.19125
  0
TEXT
  7
TextStyle03
  8
Éíû@
  6
CONTINUOUS
 10
-12617.5
 20
27286.25
  1
250
 40
300.0
 50
90.0
 72
     5
 11
-12617.5
 21
27773.75
  0
ENDBLK
  0
BLOCK
  2
*DIM_0017
 70
    65
 10
0.0
 20
0.0
  0
LINE
  8
Éíû@
 10
-11977.63925
 20
26198.52475
 11
-12577.63925
 21
26198.52475
  0
LINE
  8
Éíû@
 10
-12577.63925
 20
27031.858
 11
-12577.63925
 21
26198.52475
  0
POINT
  8
Éíû@
 10
-12577.63925
 20
26198.52475
  0
TEXT
  7
TextStyle03
  8
Éíû@
  6
CONTINUOUS
 10
-12617.5
 20
26368.75
  1
250
 40
300.0
 50
90.0
 72
     5
 11
-12617.5
 21
26856.25
  0
ENDBLK
  0
BLOCK
  2
*DIM_0018
 70
    65
 10
0.0
 20
0.0
  0
LINE
  8
Éíû@
 10
-11977.63925
 20
26198.52475
 11
-12577.63925
 21
26198.52475
  0
LINE
  8
Éíû@
 10
-11977.63925
 20
26115.1915
 11
-12577.63925
 21
26115.1915
  0
LINE
  8
Éíû@
 10
-12577.63925
 20
26198.52475
 11
-12577.63925
 21
26115.1915
  0
POINT
  8
Éíû@
 10
-12577.63925
 20
26115.1915
  0
TEXT
  7
TextStyle03
  8
Éíû@
  6
CONTINUOUS
 10
-12260.0
 20
26220.625
  1
25
 40
300.0
 50
90.0
 72
     5
 11
-12260.0
 21
26539.375
  0
ENDBLK
  0
BLOCK
  2
*DIM_0019
 70
    65
 10
0.0
 20
0.0
  0
LINE
  8
Éíû@
 10
-11977.63925
 20
27115.19125
 11
-12577.63925
 21
27115.19125
  0
LINE
  8
Éíû@
 10
-11977.63925
 20
27031.858
 11
-12577.63925
 21
27031.858
  0
LINE
  8
Éíû@
 10
-12577.63925
 20
27115.19125
 11
-12577.63925
 21
27031.858
  0
POINT
  8
Éíû@
 10
-12577.63925
 20
27031.858
  0
TEXT
  7
TextStyle03
  8
Éíû@
  6
CONTINUOUS
 10
-12222.5
 20
27113.125
  1
25
 40
300.0
 50
90.0
 72
     5
 11
-12222.5
 21
27431.875
  0
ENDBLK
  0
BLOCK
  2
*DIM_0020
 70
    65
 10
0.0
 20
0.0
  0
LINE
  8
Éíû@
 10
-11977.63925
 20
28031.85775
 11
-12577.63925
 21
28031.85775
  0
LINE
  8
Éíû@
 10
-11977.63925
 20
27948.5245
 11
-12577.63925
 21
27948.5245
  0
LINE
  8
Éíû@
 10
-12577.63925
 20
28031.85775
 11
-12577.63925
 21
27948.5245
  0
POINT
  8
Éíû@
 10
-12577.63925
 20
27948.5245
  0
TEXT
  7
TextStyle03
  8
Éíû@
  6
CONTINUOUS
 10
-12260.0
 20
28035.625
  1
25
 40
300.0
 50
90.0
 72
     5
 11
-12260.0
 21
28354.375
  0
ENDBLK
  0
BLOCK
  2
*DIM_0021
 70
    65
 10
0.0
 20
0.0
  0
LINE
  8
Éíû@
 10
-11977.63925
 20
28948.52425
 11
-12577.63925
 21
28948.52425
  0
LINE
  8
Éíû@
 10
-11977.63925
 20
28865.191
 11
-12577.63925
 21
28865.191
  0
LINE
  8
Éíû@
 10
-12577.63925
 20
28948.52425
 11
-12577.63925
 21
28865.191
  0
POINT
  8
Éíû@
 10
-12577.63925
 20
28865.191
  0
TEXT
  7
TextStyle03
  8
Éíû@
  6
CONTINUOUS
 10
-12250.0
 20
28965.625
  1
25
 40
300.0
 50
90.0
 72
     5
 11
-12250.0
 21
29284.375
  0
ENDBLK
  0
BLOCK
  2
*DIM_0022
 70
    65
 10
0.0
 20
0.0
  0
LINE
  8
Éíû@
 10
-11977.63925
 20
30781.8575
 11
-12577.63925
 21
30781.8575
  0
LINE
  8
Éíû@
 10
-11977.63925
 20
30681.8575
 11
-12577.63925
 21
30681.8575
  0
LINE
  8
Éíû@
 10
-12577.63925
 20
30781.8575
 11
-12577.63925
 21
30681.8575
  0
POINT
  8
Éíû@
 10
-12577.63925
 20
30781.8575
  0
POINT
  8
Éíû@
 10
-12577.63925
 20
30681.8575
  0
TEXT
  7
TextStyle03
  8
Éíû@
  6
CONTINUOUS
 10
-12250.0
 20
30375.625
  1
30
 40
300.0
 50
90.0
 72
     5
 11
-12250.0
 21
30694.375
  0
ENDBLK
  0
BLOCK
  2
*DIM_0023
 70
    65
 10
0.0
 20
0.0
  0
LINE
  8
Éíû@
 10
5065.29025
 20
28681.50575
 11
5065.29025
 21
29281.50575
  0
LINE
  8
Éíû@
 10
6398.6235
 20
28681.50575
 11
6398.6235
 21
29281.50575
  0
LINE
  8
Éíû@
 10
5065.29025
 20
29281.50575
 11
6398.6235
 21
29281.50575
  0
POINT
  8
Éíû@
 10
5065.29025
 20
29281.50575
  0
POINT
  8
Éíû@
 10
6398.6235
 20
29281.50575
  0
TEXT
  7
TextStyle03
  8
Éíû@
  6
CONTINUOUS
 10
5486.25
 20
29317.5
  1
400
 40
300.0
 72
     5
 11
5973.75
 21
29317.5
  0
ENDBLK
  0
BLOCK
  2
*DIM_0024
 70
    65
 10
0.0
 20
0.0
  0
LINE
  8
Éíû@
 10
4583.81225
 20
27857.14175
 11
3983.81225
 21
27857.14175
  0
LINE
  8
Éíû@
 10
4583.81225
 20
27757.14175
 11
3983.81225
 21
27757.14175
  0
LINE
  8
Éíû@
 10
3983.81225
 20
27857.14175
 11
3983.81225
 21
27757.14175
  0
POINT
  8
Éíû@
 10
3983.81225
 20
27857.14175
  0
POINT
  8
Éíû@
 10
3983.81225
 20
27757.14175
  0
TEXT
  7
TextStyle03
  8
Éíû@
  6
CONTINUOUS
 10
3930.0
 20
27868.125
  1
30
 40
300.0
 50
90.0
 72
     5
 11
3930.0
 21
28186.875
  0
ENDBLK
  0
BLOCK
  2
*DIM_0025
 70
    65
 10
0.0
 20
0.0
  0
LINE
  8
Éíû@
 10
5065.29025
 20
28081.50575
 11
5065.29025
 21
28681.50575
  0
LINE
  8
Éíû@
 10
6231.957
 20
28081.50575
 11
6231.957
 21
28681.50575
  0
LINE
  8
Éíû@
 10
5065.29025
 20
28681.50575
 11
6231.957
 21
28681.50575
  0
POINT
  8
Éíû@
 10
5065.29025
 20
28681.50575
  0
POINT
  8
Éíû@
 10
6231.957
 20
28681.50575
  0
TEXT
  7
TextStyle03
  8
Éíû@
  6
CONTINUOUS
 10
5403.75
 20
28717.5
  1
350
 40
300.0
 72
     5
 11
5891.25
 21
28717.5
  0
ENDBLK
  0
BLOCK
  2
*DIM_0026
 70
    65
 10
0.0
 20
0.0
  0
LINE
  8
Éíû@
 10
6231.957
 20
28081.50575
 11
6231.957
 21
28681.50575
  0
LINE
  8
Éíû@
 10
6398.6235
 20
28081.50575
 11
6398.6235
 21
28681.50575
  0
LINE
  8
Éíû@
 10
6231.957
 20
28681.50575
 11
6398.6235
 21
28681.50575
  0
POINT
  8
Éíû@
 10
6231.957
 20
28681.50575
  0
POINT
  8
Éíû@
 10
6398.6235
 20
28681.50575
  0
TEXT
  7
TextStyle03
  8
Éíû@
  6
CONTINUOUS
 10
6155.625
 20
28717.5
  1
50
 40
300.0
 72
     5
 11
6474.375
 21
28717.5
  0
ENDBLK
  0
BLOCK
  2
*DIM_0027
 70
    65
 10
0.0
 20
0.0
  0
LINE
  8
Éíû@
 10
7866.65825
 20
28748.53
 11
7866.65825
 21
29348.53
  0
LINE
  8
Éíû@
 10
12199.99125
 20
28748.53
 11
12199.99125
 21
29348.53
  0
LINE
  8
Éíû@
 10
7866.65825
 20
29348.53
 11
12199.99125
 21
29348.53
  0
POINT
  8
Éíû@
 10
7866.65825
 20
29348.53
  0
POINT
  8
Éíû@
 10
12199.99125
 20
29348.53
  0
TEXT
  7
TextStyle03
  8
Éíû@
  6
CONTINUOUS
 10
9620.0
 20
29385.0
  1
1,300
 40
300.0
 72
     5
 11
10445.0
 21
29385.0
  0
ENDBLK
  0
BLOCK
  2
*DIM_0028
 70
    65
 10
0.0
 20
0.0
  0
LINE
  8
Éíû@
 10
3983.81225
 20
27857.14175
 11
3383.81225
 21
27857.14175
  0
LINE
  8
Éíû@
 10
3983.81225
 20
23357.14175
 11
3383.81225
 21
23357.14175
  0
LINE
  8
Éíû@
 10
3383.81225
 20
27857.14175
 11
3383.81225
 21
23357.14175
  0
POINT
  8
Éíû@
 10
3383.81225
 20
27857.14175
  0
POINT
  8
Éíû@
 10
3383.81225
 20
23357.14175
  0
TEXT
  7
TextStyle03
  8
Éíû@
  6
CONTINUOUS
 10
3345.0
 20
25195.0
  1
1,350
 40
300.0
 50
90.0
 72
     5
 11
3345.0
 21
26020.0
  0
ENDBLK
  0
BLOCK
  2
*DIM_0029
 70
    65
 10
0.0
 20
0.0
  0
LINE
  8
Éíû@
 10
4583.81225
 20
27757.14175
 11
3983.81225
 21
27757.14175
  0
LINE
  8
Éíû@
 10
4583.81225
 20
26190.475
 11
3983.81225
 21
26190.475
  0
LINE
  8
Éíû@
 10
3983.81225
 20
27757.14175
 11
3983.81225
 21
26190.475
  0
POINT
  8
Éíû@
 10
3983.81225
 20
27757.14175
  0
POINT
  8
Éíû@
 10
3983.81225
 20
26190.475
  0
TEXT
  7
TextStyle03
  8
Éíû@
  6
CONTINUOUS
 10
3945.0
 20
26731.25
  1
470
 40
300.0
 50
90.0
 72
     5
 11
3945.0
 21
27218.75
  0
ENDBLK
  0
BLOCK
  2
*DIM_0030
 70
    65
 10
0.0
 20
0.0
  0
LINE
  8
Éíû@
 10
4583.81225
 20
25273.808
 11
3983.81225
 21
25273.808
  0
LINE
  8
Éíû@
 10
3983.81225
 20
26107.14175
 11
3983.81225
 21
25273.808
  0
POINT
  8
Éíû@
 10
3983.81225
 20
25273.808
  0
TEXT
  7
TextStyle03
  8
Éíû@
  6
CONTINUOUS
 10
3945.0
 20
25446.25
  1
250
 40
300.0
 50
90.0
 72
     5
 11
3945.0
 21
25933.75
  0
ENDBLK
  0
BLOCK
  2
*DIM_0031
 70
    65
 10
0.0
 20
0.0
  0
LINE
  8
Éíû@
 10
4583.81225
 20
24357.1415
 11
3983.81225
 21
24357.1415
  0
LINE
  8
Éíû@
 10
3983.81225
 20
25190.47475
 11
3983.81225
 21
24357.1415
  0
POINT
  8
Éíû@
 10
3983.81225
 20
24357.1415
  0
TEXT
  7
TextStyle03
  8
Éíû@
  6
CONTINUOUS
 10
3945.0
 20
24531.25
  1
250
 40
300.0
 50
90.0
 72
     5
 11
3945.0
 21
25018.75
  0
ENDBLK
  0
BLOCK
  2
*DIM_0032
 70
    65
 10
0.0
 20
0.0
  0
LINE
  8
Éíû@
 10
4583.81225
 20
23440.475
 11
3983.81225
 21
23440.475
  0
LINE
  8
Éíû@
 10
3983.81225
 20
24273.80825
 11
3983.81225
 21
23440.475
  0
POINT
  8
Éíû@
 10
3983.81225
 20
23440.475
  0
TEXT
  7
TextStyle03
  8
Éíû@
  6
CONTINUOUS
 10
3945.0
 20
23613.75
  1
250
 40
300.0
 50
90.0
 72
     5
 11
3945.0
 21
24101.25
  0
ENDBLK
  0
BLOCK
  2
*DIM_0033
 70
    65
 10
0.0
 20
0.0
  0
LINE
  8
Éíû@
 10
4583.81225
 20
26190.475
 11
3983.81225
 21
26190.475
  0
LINE
  8
Éíû@
 10
4583.81225
 20
26107.14175
 11
3983.81225
 21
26107.14175
  0
LINE
  8
Éíû@
 10
3983.81225
 20
26172.32175
 11
3983.81225
 21
26107.14175
  0
POINT
  8
Éíû@
 10
3983.81225
 20
26107.14175
  0
TEXT
  7
TextStyle03
  8
Éíû@
  6
CONTINUOUS
 10
4295.0
 20
26195.625
  1
25
 40
300.0
 50
90.0
 72
     5
 11
4295.0
 21
26514.375
  0
ENDBLK
  0
BLOCK
  2
*DIM_0034
 70
    65
 10
0.0
 20
0.0
  0
LINE
  8
Éíû@
 10
4583.81225
 20
25273.808
 11
3983.81225
 21
25273.808
  0
LINE
  8
Éíû@
 10
4583.81225
 20
25190.47475
 11
3983.81225
 21
25190.47475
  0
LINE
  8
Éíû@
 10
3983.81225
 20
25249.82175
 11
3983.81225
 21
25190.47475
  0
POINT
  8
Éíû@
 10
3983.81225
 20
25190.47475
  0
TEXT
  7
TextStyle03
  8
Éíû@
  6
CONTINUOUS
 10
4295.0
 20
25273.125
  1
25
 40
300.0
 50
90.0
 72
     5
 11
4295.0
 21
25591.875
  0
ENDBLK
  0
BLOCK
  2
*DIM_0035
 70
    65
 10
0.0
 20
0.0
  0
LINE
  8
Éíû@
 10
4583.81225
 20
24357.1415
 11
3983.81225
 21
24357.1415
  0
LINE
  8
Éíû@
 10
4583.81225
 20
24273.80825
 11
3983.81225
 21
24273.80825
  0
LINE
  8
Éíû@
 10
3983.81225
 20
24357.1415
 11
3983.81225
 21
24273.80825
  0
POINT
  8
Éíû@
 10
3983.81225
 20
24273.80825
  0
TEXT
  7
TextStyle03
  8
Éíû@
  6
CONTINUOUS
 10
4307.5
 20
24375.625
  1
25
 40
300.0
 50
90.0
 72
     5
 11
4307.5
 21
24694.375
  0
ENDBLK
  0
BLOCK
  2
*DIM_0036
 70
    65
 10
0.0
 20
0.0
  0
LINE
  8
Éíû@
 10
4583.81225
 20
23440.475
 11
3983.81225
 21
23440.475
  0
LINE
  8
Éíû@
 10
4583.81225
 20
23357.14175
 11
3983.81225
 21
23357.14175
  0
LINE
  8
Éíû@
 10
3983.81225
 20
23440.475
 11
3983.81225
 21
23357.14175
  0
POINT
  8
Éíû@
 10
3983.81225
 20
23357.14175
  0
TEXT
  7
TextStyle03
  8
Éíû@
  6
CONTINUOUS
 10
4320.0
 20
23450.625
  1
25
 40
300.0
 50
90.0
 72
     5
 11
4320.0
 21
23769.375
  0
ENDBLK
  0
BLOCK
  2
*DIM_0037
 70
    65
 10
0.0
 20
0.0
  0
LINE
  8
Éíû@
 10
18422.19825
 20
30414.26675
 11
18422.19825
 21
31014.26675
  0
LINE
  8
Éíû@
 10
24088.865
 20
30414.26675
 11
24088.865
 21
31014.26675
  0
LINE
  8
Éíû@
 10
18422.19825
 20
31014.26675
 11
24088.865
 21
31014.26675
  0
POINT
  8
Éíû@
 10
18422.19825
 20
31014.26675
  0
POINT
  8
Éíû@
 10
24088.865
 20
31014.26675
  0
TEXT
  7
TextStyle03
  8
Éíû@
  6
CONTINUOUS
 10
20847.5
 20
31047.5
  1
1,700
 40
300.0
 72
     5
 11
21672.5
 21
31047.5
  0
ENDBLK
  0
BLOCK
  2
*DIM_0038
 70
    65
 10
0.0
 20
0.0
  0
LINE
  8
Éíû@
 10
18079.52525
 20
29141.96725
 11
17479.52525
 21
29141.96725
  0
LINE
  8
Éíû@
 10
18079.52525
 20
24675.3005
 11
17479.52525
 21
24675.3005
  0
LINE
  8
Éíû@
 10
17479.52525
 20
29141.96725
 11
17479.52525
 21
24675.3005
  0
POINT
  8
Éíû@
 10
17479.52525
 20
29141.96725
  0
POINT
  8
Éíû@
 10
17479.52525
 20
24675.3005
  0
TEXT
  7
TextStyle03
  8
Éíû@
  6
CONTINUOUS
 10
17445.0
 20
26492.5
  1
1,340
 40
300.0
 50
90.0
 72
     5
 11
17445.0
 21
27317.5
  0
ENDBLK
  0
BLOCK
  2
*DIM_0039
 70
    65
 10
0.0
 20
0.0
  0
LINE
  8
Éíû@
 10
15402.18975
 20
29141.96725
 11
14802.18975
 21
29141.96725
  0
LINE
  8
Éíû@
 10
15402.18975
 20
29041.96725
 11
14802.18975
 21
29041.96725
  0
LINE
  8
Éíû@
 10
14802.18975
 20
29141.96725
 11
14802.18975
 21
29041.96725
  0
POINT
  8
Éíû@
 10
14802.18975
 20
29141.96725
  0
POINT
  8
Éíû@
 10
14802.18975
 20
29041.96725
  0
TEXT
  7
TextStyle03
  8
Éíû@
  6
CONTINUOUS
 10
15140.0
 20
28738.125
  1
30
 40
300.0
 50
90.0
 72
     5
 11
15140.0
 21
29056.875
  0
ENDBLK
  0
BLOCK
  2
*DIM_0040
 70
    65
 10
0.0
 20
0.0
  0
LINE
  8
Éíû@
 10
15402.18975
 20
29041.96725
 11
14802.18975
 21
29041.96725
  0
LINE
  8
Éíû@
 10
15402.18975
 20
27508.63325
 11
14802.18975
 21
27508.63325
  0
LINE
  8
Éíû@
 10
14802.18975
 20
29041.96725
 11
14802.18975
 21
27508.63325
  0
POINT
  8
Éíû@
 10
14802.18975
 20
29041.96725
  0
POINT
  8
Éíû@
 10
14802.18975
 20
27508.63325
  0
TEXT
  7
TextStyle03
  8
Éíû@
  6
CONTINUOUS
 10
14770.0
 20
28031.25
  1
460
 40
300.0
 50
90.0
 72
     5
 11
14770.0
 21
28518.75
  0
ENDBLK
  0
BLOCK
  2
*DIM_0041
 70
    65
 10
0.0
 20
0.0
  0
LINE
  8
Éíû@
 10
15402.18975
 20
27508.63325
 11
14802.18975
 21
27508.63325
  0
LINE
  8
Éíû@
 10
15402.18975
 20
27425.3
 11
14802.18975
 21
27425.3
  0
LINE
  8
Éíû@
 10
14802.18975
 20
27508.63325
 11
14802.18975
 21
27425.3
  0
POINT
  8
Éíû@
 10
14802.18975
 20
27425.3
  0
TEXT
  7
TextStyle03
  8
Éíû@
  6
CONTINUOUS
 10
15137.5
 20
27325.625
  1
25
 40
300.0
 50
90.0
 72
     5
 11
15137.5
 21
27644.375
  0
ENDBLK
  0
BLOCK
  2
*DIM_0042
 70
    65
 10
0.0
 20
0.0
  0
LINE
  8
Éíû@
 10
15402.18975
 20
25675.30025
 11
14802.18975
 21
25675.30025
  0
LINE
  8
Éíû@
 10
15402.18975
 20
25591.967
 11
14802.18975
 21
25591.967
  0
LINE
  8
Éíû@
 10
14802.18975
 20
25675.30025
 11
14802.18975
 21
25591.967
  0
POINT
  8
Éíû@
 10
14802.18975
 20
25591.967
  0
TEXT
  7
TextStyle03
  8
Éíû@
  6
CONTINUOUS
 10
15165.0
 20
25473.125
  1
25
 40
300.0
 50
90.0
 72
     5
 11
15165.0
 21
25791.875
  0
ENDBLK
  0
BLOCK
  2
*DIM_0043
 70
    65
 10
0.0
 20
0.0
  0
LINE
  8
Éíû@
 10
14802.18975
 20
24675.3005
 11
14202.18975
 21
24675.3005
  0
LINE
  8
Éíû@
 10
14802.18975
 20
29141.96725
 11
14202.18975
 21
29141.96725
  0
LINE
  8
Éíû@
 10
14202.18975
 20
24675.3005
 11
14202.18975
 21
29141.96725
  0
POINT
  8
Éíû@
 10
14202.18975
 20
24675.3005
  0
POINT
  8
Éíû@
 10
14202.18975
 20
29141.96725
  0
TEXT
  7
TextStyle03
  8
Éíû@
  6
CONTINUOUS
 10
14170.0
 20
26495.0
  1
1,340
 40
300.0
 50
90.0
 72
     5
 11
14170.0
 21
27320.0
  0
ENDBLK
  0
BLOCK
  2
*DIM_0044
 70
    65
 10
0.0
 20
0.0
  0
LINE
  8
Éíû@
 10
15402.18975
 20
24758.63375
 11
14802.18975
 21
24758.63375
  0
LINE
  8
Éíû@
 10
15402.18975
 20
24675.3005
 11
14802.18975
 21
24675.3005
  0
LINE
  8
Éíû@
 10
14802.18975
 20
24758.63375
 11
14802.18975
 21
24675.3005
  0
POINT
  8
Éíû@
 10
14802.18975
 20
24675.3005
  0
TEXT
  7
TextStyle03
  8
Éíû@
  6
CONTINUOUS
 10
15127.5
 20
24580.625
  1
25
 40
300.0
 50
90.0
 72
     5
 11
15127.5
 21
24899.375
  0
ENDBLK
  0
BLOCK
  2
*DIM_0045
 70
    65
 10
0.0
 20
0.0
  0
LINE
  8
Éíû@
 10
15402.18975
 20
25591.967
 11
14802.18975
 21
25591.967
  0
LINE
  8
Éíû@
 10
15402.18975
 20
24758.63375
 11
14802.18975
 21
24758.63375
  0
LINE
  8
Éíû@
 10
14802.18975
 20
25591.967
 11
14802.18975
 21
24758.63375
  0
POINT
  8
Éíû@
 10
14802.18975
 20
25591.967
  0
POINT
  8
Éíû@
 10
14802.18975
 20
24758.63375
  0
TEXT
  7
TextStyle03
  8
Éíû@
  6
CONTINUOUS
 10
14770.0
 20
24931.25
  1
250
 40
300.0
 50
90.0
 72
     5
 11
14770.0
 21
25418.75
  0
ENDBLK
  0
BLOCK
  2
*DIM_0046
 70
    65
 10
0.0
 20
0.0
  0
LINE
  8
Éíû@
 10
15402.18975
 20
26591.96675
 11
14802.18975
 21
26591.96675
  0
LINE
  8
Éíû@
 10
15402.18975
 20
26508.6335
 11
14802.18975
 21
26508.6335
  0
LINE
  8
Éíû@
 10
14802.18975
 20
26591.96675
 11
14802.18975
 21
26508.6335
  0
POINT
  8
Éíû@
 10
14802.18975
 20
26508.6335
  0
TEXT
  7
TextStyle03
  8
Éíû@
  6
CONTINUOUS
 10
15120.0
 20
26393.125
  1
25
 40
300.0
 50
90.0
 72
     5
 11
15120.0
 21
26711.875
  0
ENDBLK
  0
BLOCK
  2
*DIM_0047
 70
    65
 10
0.0
 20
0.0
  0
LINE
  8
Éíû@
 10
15402.18975
 20
27425.3
 11
14802.18975
 21
27425.3
  0
LINE
  8
Éíû@
 10
15402.18975
 20
26591.96675
 11
14802.18975
 21
26591.96675
  0
LINE
  8
Éíû@
 10
14802.18975
 20
27425.3
 11
14802.18975
 21
26591.96675
  0
POINT
  8
Éíû@
 10
14802.18975
 20
27425.3
  0
POINT
  8
Éíû@
 10
14802.18975
 20
26591.96675
  0
TEXT
  7
TextStyle03
  8
Éíû@
  6
CONTINUOUS
 10
14765.0
 20
26763.75
  1
250
 40
300.0
 50
90.0
 72
     5
 11
14765.0
 21
27251.25
  0
ENDBLK
  0
BLOCK
  2
*DIM_0048
 70
    65
 10
0.0
 20
0.0
  0
LINE
  8
Éíû@
 10
15402.18975
 20
26508.6335
 11
14802.18975
 21
26508.6335
  0
LINE
  8
Éíû@
 10
15402.18975
 20
25675.30025
 11
14802.18975
 21
25675.30025
  0
LINE
  8
Éíû@
 10
14802.18975
 20
26508.6335
 11
14802.18975
 21
25675.30025
  0
POINT
  8
Éíû@
 10
14802.18975
 20
26508.6335
  0
POINT
  8
Éíû@
 10
14802.18975
 20
25675.30025
  0
TEXT
  7
TextStyle03
  8
Éíû@
  6
CONTINUOUS
 10
14765.0
 20
25846.25
  1
250
 40
300.0
 50
90.0
 72
     5
 11
14765.0
 21
26333.75
  0
ENDBLK
  0
BLOCK
  2
*DIM_0049
 70
    65
 10
0.0
 20
0.0
  0
LINE
  8
Éíû@
 10
-9823.7575
 20
-13958.58
 11
-9223.7575
 21
-13958.58
  0
LINE
  8
Éíû@
 10
-9823.7575
 20
-11625.24675
 11
-9223.7575
 21
-11625.24675
  0
LINE
  8
Éíû@
 10
-9223.7575
 20
-13958.58
 11
-9223.7575
 21
-11625.24675
  0
POINT
  8
Éíû@
 10
-9223.7575
 20
-13958.58
  0
POINT
  8
Éíû@
 10
-9223.7575
 20
-11625.24675
  0
TEXT
  7
TextStyle03
  8
Éíû@
  6
CONTINUOUS
 10
-9262.5
 20
-13036.25
  1
700
 40
300.0
 50
90.0
 72
     5
 11
-9262.5
 21
-12548.75
  0
ENDBLK
  0
BLOCK
  2
*DIM_0050
 70
    65
 10
0.0
 20
0.0
  0
LINE
  8
Éíû@
 10
-9823.7575
 20
-9691.91325
 11
-9223.7575
 21
-9691.91325
  0
LINE
  8
Éíû@
 10
-9223.7575
 20
-11625.24675
 11
-9223.7575
 21
-9691.91325
  0
POINT
  8
Éíû@
 10
-9223.7575
 20
-9691.91325
  0
TEXT
  7
TextStyle03
  8
Éíû@
  6
CONTINUOUS
 10
-9262.5
 20
-10903.75
  1
580
 40
300.0
 50
90.0
 72
     5
 11
-9262.5
 21
-10416.25
  0
ENDBLK
  0
BLOCK
  2
*DIM_0051
 70
    65
 10
0.0
 20
0.0
  0
LINE
  8
Éíû@
 10
-26087.9915
 20
-13958.58
 11
-26687.9915
 21
-13958.58
  0
LINE
  8
Éíû@
 10
-26087.9915
 20
-9691.9135
 11
-26687.9915
 21
-9691.9135
  0
LINE
  8
Éíû@
 10
-26687.9915
 20
-13958.58
 11
-26687.9915
 21
-9691.9135
  0
POINT
  8
Éíû@
 10
-26687.9915
 20
-13958.58
  0
POINT
  8
Éíû@
 10
-26687.9915
 20
-9691.9135
  0
TEXT
  7
TextStyle03
  8
Éíû@
  6
CONTINUOUS
 10
-26727.5
 20
-12240.0
  1
1,280
 40
300.0
 50
90.0
 72
     5
 11
-26727.5
 21
-11415.0
  0
ENDBLK
  0
BLOCK
  2
*DIM_0052
 70
    65
 10
0.0
 20
0.0
  0
LINE
  8
Éíû@
 10
-25487.9915
 20
-13958.58
 11
-26087.9915
 21
-13958.58
  0
LINE
  8
Éíû@
 10
-25487.9915
 20
-13691.9135
 11
-26087.9915
 21
-13691.9135
  0
LINE
  8
Éíû@
 10
-26087.9915
 20
-13958.58
 11
-26087.9915
 21
-13691.9135
  0
POINT
  8
Éíû@
 10
-26087.9915
 20
-13958.58
  0
POINT
  8
Éíû@
 10
-26087.9915
 20
-13691.9135
  0
TEXT
  7
TextStyle03
  8
Éíû@
  6
CONTINUOUS
 10
-26127.5
 20
-14324.375
  1
80
 40
300.0
 50
90.0
 72
     5
 11
-26127.5
 21
-14005.625
  0
ENDBLK
  0
BLOCK
  2
*DIM_0053
 70
    65
 10
0.0
 20
0.0
  0
LINE
  8
Éíû@
 10
-25487.9915
 20
-12691.9135
 11
-26087.9915
 21
-12691.9135
  0
LINE
  8
Éíû@
 10
-26087.9915
 20
-13691.9135
 11
-26087.9915
 21
-12691.9135
  0
POINT
  8
Éíû@
 10
-26087.9915
 20
-12691.9135
  0
TEXT
  7
TextStyle03
  8
Éíû@
  6
CONTINUOUS
 10
-26127.5
 20
-13436.25
  1
300
 40
300.0
 50
90.0
 72
     5
 11
-26127.5
 21
-12948.75
  0
ENDBLK
  0
BLOCK
  2
*DIM_0054
 70
    65
 10
0.0
 20
0.0
  0
LINE
  8
Éíû@
 10
-25487.9915
 20
-11691.9135
 11
-26087.9915
 21
-11691.9135
  0
LINE
  8
Éíû@
 10
-26087.9915
 20
-12691.9135
 11
-26087.9915
 21
-11691.9135
  0
POINT
  8
Éíû@
 10
-26087.9915
 20
-11691.9135
  0
TEXT
  7
TextStyle03
  8
Éíû@
  6
CONTINUOUS
 10
-26127.5
 20
-12436.25
  1
300
 40
300.0
 50
90.0
 72
     5
 11
-26127.5
 21
-11948.75
  0
ENDBLK
  0
BLOCK
  2
*DIM_0055
 70
    65
 10
0.0
 20
0.0
  0
LINE
  8
Éíû@
 10
-25487.9915
 20
-10691.9135
 11
-26087.9915
 21
-10691.9135
  0
LINE
  8
Éíû@
 10
-26087.9915
 20
-11691.9135
 11
-26087.9915
 21
-10691.9135
  0
POINT
  8
Éíû@
 10
-26087.9915
 20
-10691.9135
  0
TEXT
  7
TextStyle03
  8
Éíû@
  6
CONTINUOUS
 10
-26127.5
 20
-11436.25
  1
300
 40
300.0
 50
90.0
 72
     5
 11
-26127.5
 21
-10948.75
  0
ENDBLK
  0
BLOCK
  2
*DIM_0056
 70
    65
 10
0.0
 20
0.0
  0
LINE
  8
Éíû@
 10
-25487.9915
 20
-9691.9135
 11
-26087.9915
 21
-9691.9135
  0
LINE
  8
Éíû@
 10
-26087.9915
 20
-10691.9135
 11
-26087.9915
 21
-9691.9135
  0
POINT
  8
Éíû@
 10
-26087.9915
 20
-9691.9135
  0
TEXT
  7
TextStyle03
  8
Éíû@
  6
CONTINUOUS
 10
-26127.5
 20
-10436.25
  1
300
 40
300.0
 50
90.0
 72
     5
 11
-26127.5
 21
-9948.75
  0
ENDBLK
  0
BLOCK
  2
*GRP_0057
 70
    65
 10
0.0
 20
0.0
  0
POINT
  8
Éíû@
 10
-11375.83325
 20
-11625.24675
  0
POLYLINE
  8
Éíû@
 66
     1
  0
VERTEX
  8
Éíû@
 10
-11375.83325
 20
-11625.24675
  0
VERTEX
  8
Éíû@
 10
-10994.8835
 20
-10965.42225
  0
VERTEX
  8
Éíû@
 10
-10852.3225
 20
-10965.42225
  0
SEQEND
  0
ENDBLK
  0
BLOCK
  2
*DIM_0058
 70
    65
 10
0.0
 20
0.0
  0
LINE
  8
Éíû@
 10
-7399.208
 20
-8874.8865
 11
-7399.208
 21
-8274.8865
  0
LINE
  8
Éíû@
 10
-6332.54125
 20
-8874.8865
 11
-6332.54125
 21
-8274.8865
  0
LINE
  8
Éíû@
 10
-7399.208
 20
-8274.8865
 11
-6332.54125
 21
-8274.8865
  0
POINT
  8
Éíû@
 10
-7399.208
 20
-8274.8865
  0
POINT
  8
Éíû@
 10
-6332.54125
 20
-8274.8865
  0
TEXT
  7
TextStyle03
  8
Éíû@
  6
CONTINUOUS
 10
-7111.25
 20
-8237.5
  1
320
 40
300.0
 72
     5
 11
-6623.75
 21
-8237.5
  0
ENDBLK
  0
BLOCK
  2
*GRP_0059
 70
    65
 10
0.0
 20
0.0
  0
POINT
  8
Éíû@
 10
-6332.54125
 20
-11321.61075
  0
POLYLINE
  8
Éíû@
 66
     1
  0
VERTEX
  8
Éíû@
 10
-6332.54125
 20
-11321.61075
  0
VERTEX
  8
Éíû@
 10
-5969.24275
 20
-10692.35925
  0
VERTEX
  8
Éíû@
 10
-5800.99125
 20
-10692.35925
  0
SEQEND
  0
ENDBLK
  0
BLOCK
  2
*GRP_0060
 70
    65
 10
0.0
 20
0.0
  0
POINT
  8
Éíû@
 10
-6643.9695
 20
-12691.91325
  0
POLYLINE
  8
Éíû@
 66
     1
  0
VERTEX
  8
Éíû@
 10
-6643.9695
 20
-12691.91325
  0
VERTEX
  8
Éíû@
 10
-6436.7955
 20
-12333.07725
  0
VERTEX
  8
Éíû@
 10
-6153.1215
 20
-12333.07725
  0
SEQEND
  0
ENDBLK
  0
BLOCK
  2
*DIM_0061
 70
    65
 10
0.0
 20
0.0
  0
LINE
  8
Éíû@
 10
-7325.31325
 20
-13061.91325
 11
-7925.31325
 21
-13061.91325
  0
LINE
  8
Éíû@
 10
-7325.31325
 20
-13091.91325
 11
-7925.31325
 21
-13091.91325
  0
LINE
  8
Éíû@
 10
-7925.31325
 20
-13061.91325
 11
-7925.31325
 21
-13091.91325
  0
POINT
  8
Éíû@
 10
-7925.31325
 20
-13061.91325
  0
POINT
  8
Éíû@
 10
-7925.31325
 20
-13091.91325
  0
TEXT
  7
TextStyle03
  8
Éíû@
  6
CONTINUOUS
 10
-7965.0
 20
-13152.5
  1
9
 40
300.0
 50
90.0
 72
     5
 11
-7965.0
 21
-13002.5
  0
ENDBLK
  0
BLOCK
  2
*DIM_0062
 70
    65
 10
0.0
 20
0.0
  0
LINE
  8
Éíû@
 10
-7340.2935
 20
-12691.91325
 11
-7940.2935
 21
-12691.91325
  0
LINE
  8
Éíû@
 10
-7340.2935
 20
-12758.58
 11
-7940.2935
 21
-12758.58
  0
LINE
  8
Éíû@
 10
-7940.2935
 20
-12691.91325
 11
-7940.2935
 21
-12758.58
  0
POINT
  8
Éíû@
 10
-7940.2935
 20
-12691.91325
  0
POINT
  8
Éíû@
 10
-7940.2935
 20
-12758.58
  0
TEXT
  7
TextStyle03
  8
Éíû@
  6
CONTINUOUS
 10
-7977.5
 20
-12886.875
  1
20
 40
300.0
 50
90.0
 72
     5
 11
-7977.5
 21
-12568.125
  0
ENDBLK
  0
BLOCK
  2
*DIM_0063
 70
    65
 10
0.0
 20
0.0
  0
LINE
  8
Éíû@
 10
-7332.80325
 20
-13691.91325
 11
-7932.80325
 21
-13691.91325
  0
LINE
  8
Éíû@
 10
-7332.80325
 20
-13758.58
 11
-7932.80325
 21
-13758.58
  0
LINE
  8
Éíû@
 10
-7932.80325
 20
-13691.91325
 11
-7932.80325
 21
-13758.58
  0
POINT
  8
Éíû@
 10
-7932.80325
 20
-13691.91325
  0
POINT
  8
Éíû@
 10
-7932.80325
 20
-13758.58
  0
TEXT
  7
TextStyle03
  8
Éíû@
  6
CONTINUOUS
 10
-7970.0
 20
-13886.875
  1
20
 40
300.0
 50
90.0
 72
     5
 11
-7970.0
 21
-13568.125
  0
ENDBLK
  0
BLOCK
  2
*DIM_0064
 70
    65
 10
0.0
 20
0.0
  0
LINE
  8
Éíû@
 10
-7479.87675
 20
-11691.91325
 11
-8079.87675
 21
-11691.91325
  0
LINE
  8
Éíû@
 10
-7479.87675
 20
-11061.91325
 11
-8079.87675
 21
-11061.91325
  0
LINE
  8
Éíû@
 10
-8079.87675
 20
-11691.91325
 11
-8079.87675
 21
-11061.91325
  0
POINT
  8
Éíû@
 10
-8079.87675
 20
-11691.91325
  0
POINT
  8
Éíû@
 10
-8079.87675
 20
-11061.91325
  0
TEXT
  7
TextStyle03
  8
Éíû@
  6
CONTINUOUS
 10
-8117.5
 20
-11621.25
  1
189
 40
300.0
 50
90.0
 72
     5
 11
-8117.5
 21
-11133.75
  0
ENDBLK
  0
BLOCK
  2
*DIM_0065
 70
    65
 10
0.0
 20
0.0
  0
LINE
  8
Éíû@
 10
-7479.87675
 20
-10691.91325
 11
-8079.87675
 21
-10691.91325
  0
LINE
  8
Éíû@
 10
-8079.87675
 20
-11061.91325
 11
-8079.87675
 21
-10691.91325
  0
POINT
  8
Éíû@
 10
-8079.87675
 20
-10691.91325
  0
TEXT
  7
TextStyle03
  8
Éíû@
  6
CONTINUOUS
 10
-8117.5
 20
-10616.25
  1
111
 40
300.0
 50
90.0
 72
     5
 11
-8117.5
 21
-10128.75
  0
ENDBLK
  0
BLOCK
  2
*DIM_0066
 70
    65
 10
0.0
 20
0.0
  0
LINE
  8
Éíû@
 10
-26087.9915
 20
-5674.55625
 11
-26687.9915
 21
-5674.55625
  0
LINE
  8
Éíû@
 10
-26087.9915
 20
-2674.55625
 11
-26687.9915
 21
-2674.55625
  0
LINE
  8
Éíû@
 10
-26687.9915
 20
-5674.55625
 11
-26687.9915
 21
-2674.55625
  0
POINT
  8
Éíû@
 10
-26687.9915
 20
-5674.55625
  0
POINT
  8
Éíû@
 10
-26687.9915
 20
-2674.55625
  0
TEXT
  7
TextStyle03
  8
Éíû@
  6
CONTINUOUS
 10
-26727.5
 20
-4418.75
  1
900
 40
300.0
 50
90.0
 72
     5
 11
-26727.5
 21
-3931.25
  0
ENDBLK
  0
BLOCK
  2
*DIM_0067
 70
    65
 10
0.0
 20
0.0
  0
LINE
  8
Éíû@
 10
-25487.9915
 20
-5674.55625
 11
-26087.9915
 21
-5674.55625
  0
LINE
  8
Éíû@
 10
-25487.9915
 20
-5594.55625
 11
-26087.9915
 21
-5594.55625
  0
LINE
  8
Éíû@
 10
-26087.9915
 20
-5674.55625
 11
-26087.9915
 21
-5594.55625
  0
POINT
  8
Éíû@
 10
-26087.9915
 20
-5674.55625
  0
POINT
  8
Éíû@
 10
-26087.9915
 20
-5594.55625
  0
TEXT
  7
TextStyle03
  8
Éíû@
  6
CONTINUOUS
 10
-26127.5
 20
-6131.875
  1
24
 40
300.0
 50
90.0
 72
     5
 11
-26127.5
 21
-5813.125
  0
ENDBLK
  0
BLOCK
  2
*DIM_0068
 70
    65
 10
0.0
 20
0.0
  0
LINE
  8
Éíû@
 10
-25487.9915
 20
-4869.55625
 11
-26087.9915
 21
-4869.55625
  0
LINE
  8
Éíû@
 10
-26087.9915
 20
-5594.55625
 11
-26087.9915
 21
-4869.55625
  0
POINT
  8
Éíû@
 10
-26087.9915
 20
-4869.55625
  0
TEXT
  7
TextStyle03
  8
Éíû@
  6
CONTINUOUS
 10
-26127.5
 20
-5476.25
  1
218
 40
300.0
 50
90.0
 72
     5
 11
-26127.5
 21
-4988.75
  0
ENDBLK
  0
BLOCK
  2
*DIM_0069
 70
    65
 10
0.0
 20
0.0
  0
LINE
  8
Éíû@
 10
-25487.9915
 20
-4139.55625
 11
-26087.9915
 21
-4139.55625
  0
LINE
  8
Éíû@
 10
-26087.9915
 20
-4869.55625
 11
-26087.9915
 21
-4139.55625
  0
POINT
  8
Éíû@
 10
-26087.9915
 20
-4139.55625
  0
TEXT
  7
TextStyle03
  8
Éíû@
  6
CONTINUOUS
 10
-26127.5
 20
-4748.75
  1
219
 40
300.0
 50
90.0
 72
     5
 11
-26127.5
 21
-4261.25
  0
ENDBLK
  0
BLOCK
  2
*DIM_0070
 70
    65
 10
0.0
 20
0.0
  0
LINE
  8
Éíû@
 10
-25487.9915
 20
-3409.55625
 11
-26087.9915
 21
-3409.55625
  0
LINE
  8
Éíû@
 10
-26087.9915
 20
-4139.55625
 11
-26087.9915
 21
-3409.55625
  0
POINT
  8
Éíû@
 10
-26087.9915
 20
-3409.55625
  0
TEXT
  7
TextStyle03
  8
Éíû@
  6
CONTINUOUS
 10
-26127.5
 20
-4018.75
  1
219
 40
300.0
 50
90.0
 72
     5
 11
-26127.5
 21
-3531.25
  0
ENDBLK
  0
BLOCK
  2
*DIM_0071
 70
    65
 10
0.0
 20
0.0
  0
LINE
  8
Éíû@
 10
-25487.9915
 20
-2674.55625
 11
-26087.9915
 21
-2674.55625
  0
LINE
  8
Éíû@
 10
-26087.9915
 20
-3409.55625
 11
-26087.9915
 21
-2674.55625
  0
POINT
  8
Éíû@
 10
-26087.9915
 20
-2674.55625
  0
TEXT
  7
TextStyle03
  8
Éíû@
  6
CONTINUOUS
 10
-26127.5
 20
-3286.25
  1
221
 40
300.0
 50
90.0
 72
     5
 11
-26127.5
 21
-2798.75
  0
ENDBLK
  0
BLOCK
  2
*DIM_0072
 70
    65
 10
0.0
 20
0.0
  0
LINE
  8
Éíû@
 10
-23915.015
 20
-1537.5855
 11
-23915.015
 21
-937.5855
  0
LINE
  8
Éíû@
 10
-18915.015
 20
-1537.5855
 11
-18915.015
 21
-937.5855
  0
LINE
  8
Éíû@
 10
-23915.015
 20
-937.5855
 11
-18915.015
 21
-937.5855
  0
POINT
  8
Éíû@
 10
-23915.015
 20
-937.5855
  0
POINT
  8
Éíû@
 10
-18915.015
 20
-937.5855
  0
TEXT
  7
TextStyle03
  8
Éíû@
  6
CONTINUOUS
 10
-21830.0
 20
-902.5
  1
1,500
 40
300.0
 72
     5
 11
-21005.0
 21
-902.5
  0
ENDBLK
  0
BLOCK
  2
*DIM_0073
 70
    65
 10
0.0
 20
0.0
  0
LINE
  8
Éíû@
 10
-23915.015
 20
-2137.5855
 11
-23915.015
 21
-1537.5855
  0
LINE
  8
Éíû@
 10
-23835.015
 20
-2137.5855
 11
-23835.015
 21
-1537.5855
  0
LINE
  8
Éíû@
 10
-23915.015
 20
-1537.5855
 11
-23835.015
 21
-1537.5855
  0
POINT
  8
Éíû@
 10
-23915.015
 20
-1537.5855
  0
POINT
  8
Éíû@
 10
-23835.015
 20
-1537.5855
  0
TEXT
  7
TextStyle03
  8
Éíû@
  6
CONTINUOUS
 10
-24374.375
 20
-1502.5
  1
24
 40
300.0
 72
     5
 11
-24055.625
 21
-1502.5
  0
ENDBLK
  0
BLOCK
  2
*DIM_0074
 70
    65
 10
0.0
 20
0.0
  0
LINE
  8
Éíû@
 10
-23207.15775
 20
-2137.5855
 11
-23207.15775
 21
-1537.5855
  0
LINE
  8
Éíû@
 10
-23835.015
 20
-1537.5855
 11
-23207.15775
 21
-1537.5855
  0
POINT
  8
Éíû@
 10
-23207.15775
 20
-1537.5855
  0
TEXT
  7
TextStyle03
  8
Éíû@
  6
CONTINUOUS
 10
-23766.25
 20
-1502.5
  1
188
 40
300.0
 72
     5
 11
-23278.75
 21
-1502.5
  0
ENDBLK
  0
BLOCK
  2
*DIM_0075
 70
    65
 10
0.0
 20
0.0
  0
LINE
  8
Éíû@
 10
-23137.15775
 20
-2137.5855
 11
-23137.15775
 21
-1537.5855
  0
LINE
  8
Éíû@
 10
-23207.15775
 20
-1537.5855
 11
-23137.15775
 21
-1537.5855
  0
POINT
  8
Éíû@
 10
-23137.15775
 20
-1537.5855
  0
TEXT
  7
TextStyle03
  8
Éíû@
  6
CONTINUOUS
 10
-23331.875
 20
-1840.0
  1
21
 40
300.0
 72
     5
 11
-23013.125
 21
-1840.0
  0
ENDBLK
  0
BLOCK
  2
*DIM_0076
 70
    65
 10
0.0
 20
0.0
  0
LINE
  8
Éíû@
 10
-22504.30075
 20
-2137.5855
 11
-22504.30075
 21
-1537.5855
  0
LINE
  8
Éíû@
 10
-23137.15775
 20
-1537.5855
 11
-22504.30075
 21
-1537.5855
  0
POINT
  8
Éíû@
 10
-22504.30075
 20
-1537.5855
  0
TEXT
  7
TextStyle03
  8
Éíû@
  6
CONTINUOUS
 10
-23066.25
 20
-1502.5
  1
190
 40
300.0
 72
     5
 11
-22578.75
 21
-1502.5
  0
ENDBLK
  0
BLOCK
  2
*DIM_0077
 70
    65
 10
0.0
 20
0.0
  0
LINE
  8
Éíû@
 10
-22434.30075
 20
-2137.5855
 11
-22434.30075
 21
-1537.5855
  0
LINE
  8
Éíû@
 10
-22504.30075
 20
-1537.5855
 11
-22434.30075
 21
-1537.5855
  0
POINT
  8
Éíû@
 10
-22434.30075
 20
-1537.5855
  0
TEXT
  7
TextStyle03
  8
Éíû@
  6
CONTINUOUS
 10
-22629.375
 20
-1840.0
  1
21
 40
300.0
 72
     5
 11
-22310.625
 21
-1840.0
  0
ENDBLK
  0
BLOCK
  2
*DIM_0078
 70
    65
 10
0.0
 20
0.0
  0
LINE
  8
Éíû@
 10
-21801.44375
 20
-2137.5855
 11
-21801.44375
 21
-1537.5855
  0
LINE
  8
Éíû@
 10
-22434.30075
 20
-1537.5855
 11
-21801.44375
 21
-1537.5855
  0
POINT
  8
Éíû@
 10
-21801.44375
 20
-1537.5855
  0
TEXT
  7
TextStyle03
  8
Éíû@
  6
CONTINUOUS
 10
-22363.75
 20
-1502.5
  1
190
 40
300.0
 72
     5
 11
-21876.25
 21
-1502.5
  0
ENDBLK
  0
BLOCK
  2
*DIM_0079
 70
    65
 10
0.0
 20
0.0
  0
LINE
  8
Éíû@
 10
-21731.44375
 20
-2137.5855
 11
-21731.44375
 21
-1537.5855
  0
LINE
  8
Éíû@
 10
-21801.44375
 20
-1537.5855
 11
-21731.44375
 21
-1537.5855
  0
POINT
  8
Éíû@
 10
-21731.44375
 20
-1537.5855
  0
TEXT
  7
TextStyle03
  8
Éíû@
  6
CONTINUOUS
 10
-21926.875
 20
-1840.0
  1
21
 40
300.0
 72
     5
 11
-21608.125
 21
-1840.0
  0
ENDBLK
  0
BLOCK
  2
*DIM_0080
 70
    65
 10
0.0
 20
0.0
  0
LINE
  8
Éíû@
 10
-21098.58625
 20
-2137.5855
 11
-21098.58625
 21
-1537.5855
  0
LINE
  8
Éíû@
 10
-21731.44375
 20
-1537.5855
 11
-21098.58625
 21
-1537.5855
  0
POINT
  8
Éíû@
 10
-21098.58625
 20
-1537.5855
  0
TEXT
  7
TextStyle03
  8
Éíû@
  6
CONTINUOUS
 10
-21661.25
 20
-1502.5
  1
190
 40
300.0
 72
     5
 11
-21173.75
 21
-1502.5
  0
ENDBLK
  0
BLOCK
  2
*DIM_0081
 70
    65
 10
0.0
 20
0.0
  0
LINE
  8
Éíû@
 10
-21028.58625
 20
-2137.5855
 11
-21028.58625
 21
-1537.5855
  0
LINE
  8
Éíû@
 10
-21098.58625
 20
-1537.5855
 11
-21028.58625
 21
-1537.5855
  0
POINT
  8
Éíû@
 10
-21028.58625
 20
-1537.5855
  0
TEXT
  7
TextStyle03
  8
Éíû@
  6
CONTINUOUS
 10
-21224.375
 20
-1840.0
  1
21
 40
300.0
 72
     5
 11
-20905.625
 21
-1840.0
  0
ENDBLK
  0
BLOCK
  2
*DIM_0082
 70
    65
 10
0.0
 20
0.0
  0
LINE
  8
Éíû@
 10
-20395.729
 20
-2137.5855
 11
-20395.729
 21
-1537.5855
  0
LINE
  8
Éíû@
 10
-21028.58625
 20
-1537.5855
 11
-20395.729
 21
-1537.5855
  0
POINT
  8
Éíû@
 10
-20395.729
 20
-1537.5855
  0
TEXT
  7
TextStyle03
  8
Éíû@
  6
CONTINUOUS
 10
-20956.25
 20
-1502.5
  1
190
 40
300.0
 72
     5
 11
-20468.75
 21
-1502.5
  0
ENDBLK
  0
BLOCK
  2
*DIM_0083
 70
    65
 10
0.0
 20
0.0
  0
LINE
  8
Éíû@
 10
-20325.729
 20
-2137.5855
 11
-20325.729
 21
-1537.5855
  0
LINE
  8
Éíû@
 10
-20395.729
 20
-1537.5855
 11
-20325.729
 21
-1537.5855
  0
POINT
  8
Éíû@
 10
-20325.729
 20
-1537.5855
  0
TEXT
  7
TextStyle03
  8
Éíû@
  6
CONTINUOUS
 10
-20521.875
 20
-1840.0
  1
21
 40
300.0
 72
     5
 11
-20203.125
 21
-1840.0
  0
ENDBLK
  0
BLOCK
  2
*DIM_0084
 70
    65
 10
0.0
 20
0.0
  0
LINE
  8
Éíû@
 10
-19692.872
 20
-2137.5855
 11
-19692.872
 21
-1537.5855
  0
LINE
  8
Éíû@
 10
-20325.729
 20
-1537.5855
 11
-19692.872
 21
-1537.5855
  0
POINT
  8
Éíû@
 10
-19692.872
 20
-1537.5855
  0
TEXT
  7
TextStyle03
  8
Éíû@
  6
CONTINUOUS
 10
-20253.75
 20
-1502.5
  1
190
 40
300.0
 72
     5
 11
-19766.25
 21
-1502.5
  0
ENDBLK
  0
BLOCK
  2
*DIM_0085
 70
    65
 10
0.0
 20
0.0
  0
LINE
  8
Éíû@
 10
-19622.872
 20
-2137.5855
 11
-19622.872
 21
-1537.5855
  0
LINE
  8
Éíû@
 10
-19692.872
 20
-1537.5855
 11
-19622.872
 21
-1537.5855
  0
POINT
  8
Éíû@
 10
-19622.872
 20
-1537.5855
  0
TEXT
  7
TextStyle03
  8
Éíû@
  6
CONTINUOUS
 10
-19819.375
 20
-1840.0
  1
21
 40
300.0
 72
     5
 11
-19500.625
 21
-1840.0
  0
ENDBLK
  0
BLOCK
  2
*DIM_0086
 70
    65
 10
0.0
 20
0.0
  0
LINE
  8
Éíû@
 10
-18995.015
 20
-2137.5855
 11
-18995.015
 21
-1537.5855
  0
LINE
  8
Éíû@
 10
-19622.872
 20
-1537.5855
 11
-18995.015
 21
-1537.5855
  0
POINT
  8
Éíû@
 10
-18995.015
 20
-1537.5855
  0
TEXT
  7
TextStyle03
  8
Éíû@
  6
CONTINUOUS
 10
-19553.75
 20
-1502.5
  1
188
 40
300.0
 72
     5
 11
-19066.25
 21
-1502.5
  0
ENDBLK
  0
BLOCK
  2
*DIM_0087
 70
    65
 10
0.0
 20
0.0
  0
LINE
  8
Éíû@
 10
-18915.015
 20
-2137.5855
 11
-18915.015
 21
-1537.5855
  0
LINE
  8
Éíû@
 10
-18995.015
 20
-1537.5855
 11
-18915.015
 21
-1537.5855
  0
POINT
  8
Éíû@
 10
-18915.015
 20
-1537.5855
  0
TEXT
  7
TextStyle03
  8
Éíû@
  6
CONTINUOUS
 10
-18779.375
 20
-1502.5
  1
24
 40
300.0
 72
     5
 11
-18460.625
 21
-1502.5
  0
ENDBLK
  0
BLOCK
  2
*DIM_0088
 70
    65
 10
0.0
 20
0.0
  0
LINE
  8
Éíû@
 10
-24955.12
 20
-8468.55525
 11
-24955.12
 21
-7868.55525
  0
LINE
  8
Éíû@
 10
-21231.7865
 20
-8468.55525
 11
-21231.7865
 21
-7868.55525
  0
LINE
  8
Éíû@
 10
-24955.12
 20
-7868.55525
 11
-21231.7865
 21
-7868.55525
  0
POINT
  8
Éíû@
 10
-24955.12
 20
-7868.55525
  0
POINT
  8
Éíû@
 10
-21231.7865
 20
-7868.55525
  0
TEXT
  7
TextStyle03
  8
Éíû@
  6
CONTINUOUS
 10
-23507.5
 20
-7832.5
  1
1,117
 40
300.0
 72
     5
 11
-22682.5
 21
-7832.5
  0
ENDBLK
  0
BLOCK
  2
*DIM_0089
 70
    65
 10
0.0
 20
0.0
  0
LINE
  8
Éíû@
 10
-24955.12
 20
-9068.55525
 11
-24955.12
 21
-8468.55525
  0
LINE
  8
Éíû@
 10
-24871.7865
 20
-9068.55525
 11
-24871.7865
 21
-8468.55525
  0
LINE
  8
Éíû@
 10
-24955.12
 20
-8468.55525
 11
-24871.7865
 21
-8468.55525
  0
POINT
  8
Éíû@
 10
-24955.12
 20
-8468.55525
  0
POINT
  8
Éíû@
 10
-24871.7865
 20
-8468.55525
  0
TEXT
  7
TextStyle03
  8
Éíû@
  6
CONTINUOUS
 10
-25411.875
 20
-8432.5
  1
25
 40
300.0
 72
     5
 11
-25093.125
 21
-8432.5
  0
ENDBLK
  0
BLOCK
  2
*DIM_0090
 70
    65
 10
0.0
 20
0.0
  0
LINE
  8
Éíû@
 10
-24027.62
 20
-9068.55525
 11
-24027.62
 21
-8468.55525
  0
LINE
  8
Éíû@
 10
-24871.7865
 20
-8468.55525
 11
-24027.62
 21
-8468.55525
  0
POINT
  8
Éíû@
 10
-24027.62
 20
-8468.55525
  0
TEXT
  7
TextStyle03
  8
Éíû@
  6
CONTINUOUS
 10
-24693.75
 20
-8432.5
  1
253
 40
300.0
 72
     5
 11
-24206.25
 21
-8432.5
  0
ENDBLK
  0
BLOCK
  2
*DIM_0091
 70
    65
 10
0.0
 20
0.0
  0
LINE
  8
Éíû@
 10
-23967.62
 20
-9068.55525
 11
-23967.62
 21
-8468.55525
  0
LINE
  8
Éíû@
 10
-24027.62
 20
-8468.55525
 11
-23967.62
 21
-8468.55525
  0
POINT
  8
Éíû@
 10
-23967.62
 20
-8468.55525
  0
TEXT
  7
TextStyle03
  8
Éíû@
  6
CONTINUOUS
 10
-24159.375
 20
-8770.0
  1
18
 40
300.0
 72
     5
 11
-23840.625
 21
-8770.0
  0
ENDBLK
  0
BLOCK
  2
*DIM_0092
 70
    65
 10
0.0
 20
0.0
  0
LINE
  8
Éíû@
 10
-23123.45325
 20
-9068.55525
 11
-23123.45325
 21
-8468.55525
  0
LINE
  8
Éíû@
 10
-23967.62
 20
-8468.55525
 11
-23123.45325
 21
-8468.55525
  0
POINT
  8
Éíû@
 10
-23123.45325
 20
-8468.55525
  0
TEXT
  7
TextStyle03
  8
Éíû@
  6
CONTINUOUS
 10
-23791.25
 20
-8432.5
  1
253
 40
300.0
 72
     5
 11
-23303.75
 21
-8432.5
  0
ENDBLK
  0
BLOCK
  2
*DIM_0093
 70
    65
 10
0.0
 20
0.0
  0
LINE
  8
Éíû@
 10
-23063.45325
 20
-9068.55525
 11
-23063.45325
 21
-8468.55525
  0
LINE
  8
Éíû@
 10
-23123.45325
 20
-8468.55525
 11
-23063.45325
 21
-8468.55525
  0
POINT
  8
Éíû@
 10
-23063.45325
 20
-8468.55525
  0
TEXT
  7
TextStyle03
  8
Éíû@
  6
CONTINUOUS
 10
-23254.375
 20
-8770.0
  1
18
 40
300.0
 72
     5
 11
-22935.625
 21
-8770.0
  0
ENDBLK
  0
BLOCK
  2
*DIM_0094
 70
    65
 10
0.0
 20
0.0
  0
LINE
  8
Éíû@
 10
-22219.2865
 20
-9068.55525
 11
-22219.2865
 21
-8468.55525
  0
LINE
  8
Éíû@
 10
-23063.45325
 20
-8468.55525
 11
-22219.2865
 21
-8468.55525
  0
POINT
  8
Éíû@
 10
-22219.2865
 20
-8468.55525
  0
TEXT
  7
TextStyle03
  8
Éíû@
  6
CONTINUOUS
 10
-22886.25
 20
-8432.5
  1
253
 40
300.0
 72
     5
 11
-22398.75
 21
-8432.5
  0
ENDBLK
  0
BLOCK
  2
*DIM_0095
 70
    65
 10
0.0
 20
0.0
  0
LINE
  8
Éíû@
 10
-22159.2865
 20
-9068.55525
 11
-22159.2865
 21
-8468.55525
  0
LINE
  8
Éíû@
 10
-22219.2865
 20
-8468.55525
 11
-22159.2865
 21
-8468.55525
  0
POINT
  8
Éíû@
 10
-22159.2865
 20
-8468.55525
  0
TEXT
  7
TextStyle03
  8
Éíû@
  6
CONTINUOUS
 10
-22349.375
 20
-8770.0
  1
18
 40
300.0
 72
     5
 11
-22030.625
 21
-8770.0
  0
ENDBLK
  0
BLOCK
  2
*DIM_0096
 70
    65
 10
0.0
 20
0.0
  0
LINE
  8
Éíû@
 10
-21315.12
 20
-9068.55525
 11
-21315.12
 21
-8468.55525
  0
LINE
  8
Éíû@
 10
-22159.2865
 20
-8468.55525
 11
-21315.12
 21
-8468.55525
  0
POINT
  8
Éíû@
 10
-21315.12
 20
-8468.55525
  0
TEXT
  7
TextStyle03
  8
Éíû@
  6
CONTINUOUS
 10
-21981.25
 20
-8432.5
  1
253
 40
300.0
 72
     5
 11
-21493.75
 21
-8432.5
  0
ENDBLK
  0
BLOCK
  2
*DIM_0097
 70
    65
 10
0.0
 20
0.0
  0
LINE
  8
Éíû@
 10
-21231.7865
 20
-9068.55525
 11
-21231.7865
 21
-8468.55525
  0
LINE
  8
Éíû@
 10
-21315.12
 20
-8468.55525
 11
-21231.7865
 21
-8468.55525
  0
POINT
  8
Éíû@
 10
-21231.7865
 20
-8468.55525
  0
TEXT
  7
TextStyle03
  8
Éíû@
  6
CONTINUOUS
 10
-21096.875
 20
-8432.5
  1
25
 40
300.0
 72
     5
 11
-20778.125
 21
-8432.5
  0
ENDBLK
  0
BLOCK
  2
*DIM_0098
 70
    65
 10
0.0
 20
0.0
  0
LINE
  8
Éíû@
 10
-18232.4275
 20
-8468.55525
 11
-18232.4275
 21
-7868.55525
  0
LINE
  8
Éíû@
 10
-11749.09425
 20
-8468.55525
 11
-11749.09425
 21
-7868.55525
  0
LINE
  8
Éíû@
 10
-18232.4275
 20
-7868.55525
 11
-11749.09425
 21
-7868.55525
  0
POINT
  8
Éíû@
 10
-18232.4275
 20
-7868.55525
  0
POINT
  8
Éíû@
 10
-11749.09425
 20
-7868.55525
  0
TEXT
  7
TextStyle03
  8
Éíû@
  6
CONTINUOUS
 10
-15405.0
 20
-7832.5
  1
1,945
 40
300.0
 72
     5
 11
-14580.0
 21
-7832.5
  0
ENDBLK
  0
BLOCK
  2
*DIM_0099
 70
    65
 10
0.0
 20
0.0
  0
LINE
  8
Éíû@
 10
-10415.76075
 20
-8468.55525
 11
-10415.76075
 21
-7868.55525
  0
LINE
  8
Éíû@
 10
-11749.09425
 20
-7868.55525
 11
-10415.76075
 21
-7868.55525
  0
POINT
  8
Éíû@
 10
-10415.76075
 20
-7868.55525
  0
TEXT
  7
TextStyle03
  8
Éíû@
  6
CONTINUOUS
 10
-11326.25
 20
-7832.5
  1
400
 40
300.0
 72
     5
 11
-10838.75
 21
-7832.5
  0
ENDBLK
  0
BLOCK
  2
*DIM_0100
 70
    65
 10
0.0
 20
0.0
  0
LINE
  8
Éíû@
 10
-18232.4275
 20
-9068.55525
 11
-18232.4275
 21
-8468.55525
  0
LINE
  8
Éíû@
 10
-18149.09425
 20
-9068.55525
 11
-18149.09425
 21
-8468.55525
  0
LINE
  8
Éíû@
 10
-18232.4275
 20
-8468.55525
 11
-18149.09425
 21
-8468.55525
  0
POINT
  8
Éíû@
 10
-18232.4275
 20
-8468.55525
  0
POINT
  8
Éíû@
 10
-18149.09425
 20
-8468.55525
  0
TEXT
  7
TextStyle03
  8
Éíû@
  6
CONTINUOUS
 10
-18689.375
 20
-8432.5
  1
25
 40
300.0
 72
     5
 11
-18370.625
 21
-8432.5
  0
ENDBLK
  0
BLOCK
  2
*DIM_0101
 70
    65
 10
0.0
 20
0.0
  0
LINE
  8
Éíû@
 10
-17299.09425
 20
-9068.55525
 11
-17299.09425
 21
-8468.55525
  0
LINE
  8
Éíû@
 10
-18149.09425
 20
-8468.55525
 11
-17299.09425
 21
-8468.55525
  0
POINT
  8
Éíû@
 10
-17299.09425
 20
-8468.55525
  0
TEXT
  7
TextStyle03
  8
Éíû@
  6
CONTINUOUS
 10
-17968.75
 20
-8432.5
  1
255
 40
300.0
 72
     5
 11
-17481.25
 21
-8432.5
  0
ENDBLK
  0
BLOCK
  2
*DIM_0102
 70
    65
 10
0.0
 20
0.0
  0
LINE
  8
Éíû@
 10
-17239.09425
 20
-9068.55525
 11
-17239.09425
 21
-8468.55525
  0
LINE
  8
Éíû@
 10
-17299.09425
 20
-8468.55525
 11
-17239.09425
 21
-8468.55525
  0
POINT
  8
Éíû@
 10
-17239.09425
 20
-8468.55525
  0
TEXT
  7
TextStyle03
  8
Éíû@
  6
CONTINUOUS
 10
-17429.375
 20
-8770.0
  1
18
 40
300.0
 72
     5
 11
-17110.625
 21
-8770.0
  0
ENDBLK
  0
BLOCK
  2
*DIM_0103
 70
    65
 10
0.0
 20
0.0
  0
LINE
  8
Éíû@
 10
-16389.09425
 20
-9068.55525
 11
-16389.09425
 21
-8468.55525
  0
LINE
  8
Éíû@
 10
-17239.09425
 20
-8468.55525
 11
-16389.09425
 21
-8468.55525
  0
POINT
  8
Éíû@
 10
-16389.09425
 20
-8468.55525
  0
TEXT
  7
TextStyle03
  8
Éíû@
  6
CONTINUOUS
 10
-17058.75
 20
-8432.5
  1
255
 40
300.0
 72
     5
 11
-16571.25
 21
-8432.5
  0
ENDBLK
  0
BLOCK
  2
*DIM_0104
 70
    65
 10
0.0
 20
0.0
  0
LINE
  8
Éíû@
 10
-16329.09425
 20
-9068.55525
 11
-16329.09425
 21
-8468.55525
  0
LINE
  8
Éíû@
 10
-16389.09425
 20
-8468.55525
 11
-16329.09425
 21
-8468.55525
  0
POINT
  8
Éíû@
 10
-16329.09425
 20
-8468.55525
  0
TEXT
  7
TextStyle03
  8
Éíû@
  6
CONTINUOUS
 10
-16519.375
 20
-8770.0
  1
18
 40
300.0
 72
     5
 11
-16200.625
 21
-8770.0
  0
ENDBLK
  0
BLOCK
  2
*DIM_0105
 70
    65
 10
0.0
 20
0.0
  0
LINE
  8
Éíû@
 10
-15479.09425
 20
-9068.55525
 11
-15479.09425
 21
-8468.55525
  0
LINE
  8
Éíû@
 10
-16329.09425
 20
-8468.55525
 11
-15479.09425
 21
-8468.55525
  0
POINT
  8
Éíû@
 10
-15479.09425
 20
-8468.55525
  0
TEXT
  7
TextStyle03
  8
Éíû@
  6
CONTINUOUS
 10
-16148.75
 20
-8432.5
  1
255
 40
300.0
 72
     5
 11
-15661.25
 21
-8432.5
  0
ENDBLK
  0
BLOCK
  2
*DIM_0106
 70
    65
 10
0.0
 20
0.0
  0
LINE
  8
Éíû@
 10
-15419.09425
 20
-9068.55525
 11
-15419.09425
 21
-8468.55525
  0
LINE
  8
Éíû@
 10
-15479.09425
 20
-8468.55525
 11
-15419.09425
 21
-8468.55525
  0
POINT
  8
Éíû@
 10
-15419.09425
 20
-8468.55525
  0
TEXT
  7
TextStyle03
  8
Éíû@
  6
CONTINUOUS
 10
-15609.375
 20
-8770.0
  1
18
 40
300.0
 72
     5
 11
-15290.625
 21
-8770.0
  0
ENDBLK
  0
BLOCK
  2
*DIM_0107
 70
    65
 10
0.0
 20
0.0
  0
LINE
  8
Éíû@
 10
-14569.09425
 20
-9068.55525
 11
-14569.09425
 21
-8468.55525
  0
LINE
  8
Éíû@
 10
-15419.09425
 20
-8468.55525
 11
-14569.09425
 21
-8468.55525
  0
POINT
  8
Éíû@
 10
-14569.09425
 20
-8468.55525
  0
TEXT
  7
TextStyle03
  8
Éíû@
  6
CONTINUOUS
 10
-15238.75
 20
-8432.5
  1
255
 40
300.0
 72
     5
 11
-14751.25
 21
-8432.5
  0
ENDBLK
  0
BLOCK
  2
*DIM_0108
 70
    65
 10
0.0
 20
0.0
  0
LINE
  8
Éíû@
 10
-14509.09425
 20
-9068.55525
 11
-14509.09425
 21
-8468.55525
  0
LINE
  8
Éíû@
 10
-14569.09425
 20
-8468.55525
 11
-14509.09425
 21
-8468.55525
  0
POINT
  8
Éíû@
 10
-14509.09425
 20
-8468.55525
  0
TEXT
  7
TextStyle03
  8
Éíû@
  6
CONTINUOUS
 10
-14699.375
 20
-8770.0
  1
18
 40
300.0
 72
     5
 11
-14380.625
 21
-8770.0
  0
ENDBLK
  0
BLOCK
  2
*DIM_0109
 70
    65
 10
0.0
 20
0.0
  0
LINE
  8
Éíû@
 10
-13659.09425
 20
-9068.55525
 11
-13659.09425
 21
-8468.55525
  0
LINE
  8
Éíû@
 10
-14509.09425
 20
-8468.55525
 11
-13659.09425
 21
-8468.55525
  0
POINT
  8
Éíû@
 10
-13659.09425
 20
-8468.55525
  0
TEXT
  7
TextStyle03
  8
Éíû@
  6
CONTINUOUS
 10
-14328.75
 20
-8432.5
  1
255
 40
300.0
 72
     5
 11
-13841.25
 21
-8432.5
  0
ENDBLK
  0
BLOCK
  2
*DIM_0110
 70
    65
 10
0.0
 20
0.0
  0
LINE
  8
Éíû@
 10
-13599.09425
 20
-9068.55525
 11
-13599.09425
 21
-8468.55525
  0
LINE
  8
Éíû@
 10
-13659.09425
 20
-8468.55525
 11
-13599.09425
 21
-8468.55525
  0
POINT
  8
Éíû@
 10
-13599.09425
 20
-8468.55525
  0
TEXT
  7
TextStyle03
  8
Éíû@
  6
CONTINUOUS
 10
-13789.375
 20
-8770.0
  1
18
 40
300.0
 72
     5
 11
-13470.625
 21
-8770.0
  0
ENDBLK
  0
BLOCK
  2
*DIM_0111
 70
    65
 10
0.0
 20
0.0
  0
LINE
  8
Éíû@
 10
-12745.76075
 20
-9068.55525
 11
-12745.76075
 21
-8468.55525
  0
LINE
  8
Éíû@
 10
-13599.09425
 20
-8468.55525
 11
-12745.76075
 21
-8468.55525
  0
POINT
  8
Éíû@
 10
-12745.76075
 20
-8468.55525
  0
TEXT
  7
TextStyle03
  8
Éíû@
  6
CONTINUOUS
 10
-13416.25
 20
-8432.5
  1
256
 40
300.0
 72
     5
 11
-12928.75
 21
-8432.5
  0
ENDBLK
  0
BLOCK
  2
*DIM_0112
 70
    65
 10
0.0
 20
0.0
  0
LINE
  8
Éíû@
 10
-12685.76075
 20
-9068.55525
 11
-12685.76075
 21
-8468.55525
  0
LINE
  8
Éíû@
 10
-12745.76075
 20
-8468.55525
 11
-12685.76075
 21
-8468.55525
  0
POINT
  8
Éíû@
 10
-12685.76075
 20
-8468.55525
  0
TEXT
  7
TextStyle03
  8
Éíû@
  6
CONTINUOUS
 10
-12876.875
 20
-8770.0
  1
18
 40
300.0
 72
     5
 11
-12558.125
 21
-8770.0
  0
ENDBLK
  0
BLOCK
  2
*DIM_0113
 70
    65
 10
0.0
 20
0.0
  0
LINE
  8
Éíû@
 10
-11832.4275
 20
-9068.55525
 11
-11832.4275
 21
-8468.55525
  0
LINE
  8
Éíû@
 10
-12685.76075
 20
-8468.55525
 11
-11832.4275
 21
-8468.55525
  0
POINT
  8
Éíû@
 10
-11832.4275
 20
-8468.55525
  0
TEXT
  7
TextStyle03
  8
Éíû@
  6
CONTINUOUS
 10
-12503.75
 20
-8432.5
  1
256
 40
300.0
 72
     5
 11
-12016.25
 21
-8432.5
  0
ENDBLK
  0
BLOCK
  2
*DIM_0114
 70
    65
 10
0.0
 20
0.0
  0
LINE
  8
Éíû@
 10
-11749.09425
 20
-9068.55525
 11
-11749.09425
 21
-8468.55525
  0
LINE
  8
Éíû@
 10
-11832.4275
 20
-8468.55525
 11
-11749.09425
 21
-8468.55525
  0
POINT
  8
Éíû@
 10
-11749.09425
 20
-8468.55525
  0
TEXT
  7
TextStyle03
  8
Éíû@
  6
CONTINUOUS
 10
-11614.375
 20
-8432.5
  1
25
 40
300.0
 72
     5
 11
-11295.625
 21
-8432.5
  0
ENDBLK
  0
BLOCK
  2
*GRP_0115
 70
    65
 10
0.0
 20
0.0
  0
LINE
  8
┌▓È4
 10
3243.0405
 20
-2325.789
 11
2876.374
 21
-2325.789
  0
LINE
  8
┌▓È4
 10
3243.0405
 20
-2409.1225
 11
2876.374
 21
-2409.1225
  0
LINE
  8
┌▓È4
 10
3243.0405
 20
-2325.789
 11
3243.0405
 21
-2409.1225
  0
LINE
  8
┌▓È4
 10
2876.374
 20
-2325.789
 11
2876.374
 21
-2409.1225
  0
ENDBLK
  0
BLOCK
  2
*DIM_0116
 70
    65
 10
0.0
 20
0.0
  0
LINE
  8
Éíû@
 10
1209.70725
 20
-5375.92875
 11
1209.70725
 21
-5975.92875
  0
LINE
  8
Éíû@
 10
3209.70725
 20
-5375.92875
 11
3209.70725
 21
-5975.92875
  0
LINE
  8
Éíû@
 10
1209.70725
 20
-5975.92875
 11
3209.70725
 21
-5975.92875
  0
POINT
  8
Éíû@
 10
1209.70725
 20
-5975.92875
  0
POINT
  8
Éíû@
 10
3209.70725
 20
-5975.92875
  0
TEXT
  7
TextStyle03
  8
Éíû@
  6
CONTINUOUS
 10
1963.75
 20
-5940.0
  1
600
 40
300.0
 72
     5
 11
2451.25
 21
-5940.0
  0
ENDBLK
  0
BLOCK
  2
*DIM_0117
 70
    65
 10
0.0
 20
0.0
  0
LINE
  8
Éíû@
 10
7448.3355
 20
-5416.45625
 11
7448.3355
 21
-6016.45625
  0
LINE
  8
Éíû@
 10
9966.66875
 20
-5416.45625
 11
9966.66875
 21
-6016.45625
  0
LINE
  8
Éíû@
 10
7448.3355
 20
-6016.45625
 11
9966.66875
 21
-6016.45625
  0
POINT
  8
Éíû@
 10
7448.3355
 20
-6016.45625
  0
POINT
  8
Éíû@
 10
9966.66875
 20
-6016.45625
  0
TEXT
  7
TextStyle03
  8
Éíû@
  6
CONTINUOUS
 10
8463.75
 20
-5980.0
  1
756
 40
300.0
 72
     5
 11
8951.25
 21
-5980.0
  0
ENDBLK
  0
BLOCK
  2
*DIM_0118
 70
    65
 10
0.0
 20
0.0
  0
LINE
  8
Éíû@
 10
3641.6995
 20
-4375.789
 11
4241.6995
 21
-4375.789
  0
LINE
  8
Éíû@
 10
3641.6995
 20
-2709.1225
 11
4241.6995
 21
-2709.1225
  0
LINE
  8
Éíû@
 10
4241.6995
 20
-4375.789
 11
4241.6995
 21
-2709.1225
  0
POINT
  8
Éíû@
 10
4241.6995
 20
-4375.789
  0
POINT
  8
Éíû@
 10
4241.6995
 20
-2709.1225
  0
TEXT
  7
TextStyle03
  8
Éíû@
  6
CONTINUOUS
 10
4202.5
 20
-3786.25
  1
500
 40
300.0
 50
90.0
 72
     5
 11
4202.5
 21
-3298.75
  0
ENDBLK
  0
BLOCK
  2
*DIM_0119
 70
    65
 10
0.0
 20
0.0
  0
LINE
  8
Éíû@
 10
9755.44375
 20
-4788.4325
 11
9755.44375
 21
-2338.4325
  0
POINT
  8
Éíû@
 10
9755.44375
 20
-4788.4325
  0
POINT
  8
Éíû@
 10
9755.44375
 20
-2338.4325
  0
TEXT
  7
TextStyle03
  8
Éíû@
  6
CONTINUOUS
 10
9717.5
 20
-3808.75
  1
735
 40
300.0
 50
90.0
 72
     5
 11
9717.5
 21
-3321.25
  0
ENDBLK
  0
BLOCK
  2
*GRP_0120
 70
    65
 10
0.0
 20
0.0
  0
POINT
  8
Éíû@
 10
2381.2015
 20
-11625.24675
  0
POLYLINE
  8
Éíû@
 66
     1
  0
VERTEX
  8
Éíû@
 10
2381.2015
 20
-11625.24675
  0
VERTEX
  8
Éíû@
 10
3547.97325
 20
-9604.33875
  0
VERTEX
  8
Éíû@
 10
3785.04925
 20
-9604.33875
  0
SEQEND
  0
ENDBLK
  0
BLOCK
  2
*DIM_0121
 70
    65
 10
0.0
 20
0.0
  0
LINE
  8
Éíû@
 10
10841.33625
 20
-11625.24675
 11
11441.33625
 21
-11625.24675
  0
LINE
  8
Éíû@
 10
10841.33625
 20
-13958.58
 11
11441.33625
 21
-13958.58
  0
LINE
  8
Éíû@
 10
11441.33625
 20
-11625.24675
 11
11441.33625
 21
-13958.58
  0
POINT
  8
Éíû@
 10
11441.33625
 20
-11625.24675
  0
POINT
  8
Éíû@
 10
11441.33625
 20
-13958.58
  0
TEXT
  7
TextStyle03
  8
Éíû@
  6
CONTINUOUS
 10
11402.5
 20
-13036.25
  1
700
 40
300.0
 50
90.0
 72
     5
 11
11402.5
 21
-12548.75
  0
ENDBLK
  0
BLOCK
  2
*GRP_0122
 70
    65
 10
0.0
 20
0.0
  0
LINE
  8
┌▓È4
 10
17525.51025
 20
-4590.286
 11
17158.8435
 21
-4590.286
  0
LINE
  8
┌▓È4
 10
17525.51025
 20
-4506.95275
 11
17158.8435
 21
-4506.95275
  0
LINE
  8
┌▓È4
 10
17525.51025
 20
-4590.286
 11
17525.51025
 21
-4506.95275
  0
LINE
  8
┌▓È4
 10
17158.8435
 20
-4590.286
 11
17158.8435
 21
-4506.95275
  0
ENDBLK
  0
BLOCK
  2
*GRP_0123
 70
    65
 10
0.0
 20
0.0
  0
LINE
  8
┌▓È5
 10
19449.1465
 20
-9083.88475
 11
21124.43125
 21
-9083.88475
  0
LINE
  8
┌▓È5
 10
19449.1465
 20
-9083.88475
 11
19738.167
 21
-8917.0185
  0
LINE
  8
┌▓È5
 10
20835.41075
 20
-9250.751
 11
21124.43125
 21
-9083.88475
  0
ENDBLK
  0
BLOCK
  2
*DIM_0124
 70
    65
 10
0.0
 20
0.0
  0
LINE
  8
Éíû@
 10
22363.62675
 20
-2456.95275
 11
22363.62675
 21
-4456.95275
  0
POINT
  8
Éíû@
 10
22363.62675
 20
-2456.95275
  0
POINT
  8
Éíû@
 10
22363.62675
 20
-4456.95275
  0
TEXT
  7
TextStyle03
  8
Éíû@
  6
CONTINUOUS
 10
22325.0
 20
-3701.25
  1
600
 40
300.0
 50
90.0
 72
     5
 11
22325.0
 21
-3213.75
  0
ENDBLK
  0
BLOCK
  2
*DIM_0125
 70
    65
 10
0.0
 20
0.0
  0
LINE
  8
Éíû@
 10
23466.90325
 20
-13958.58
 11
24066.90325
 21
-13958.58
  0
LINE
  8
Éíû@
 10
23466.90325
 20
-11291.9135
 11
24066.90325
 21
-11291.9135
  0
LINE
  8
Éíû@
 10
24066.90325
 20
-13958.58
 11
24066.90325
 21
-11291.9135
  0
POINT
  8
Éíû@
 10
24066.90325
 20
-13958.58
  0
POINT
  8
Éíû@
 10
24066.90325
 20
-11291.9135
  0
TEXT
  7
TextStyle03
  8
Éíû@
  6
CONTINUOUS
 10
24027.5
 20
-12871.25
  1
800
 40
300.0
 50
90.0
 72
     5
 11
24027.5
 21
-12383.75
  0
ENDBLK
  0
BLOCK
  2
*DIM_0126
 70
    65
 10
0.0
 20
0.0
  0
LINE
  8
Éíû@
 10
-17298.7455
 20
5840.23675
 11
-16698.7455
 21
5840.23675
  0
LINE
  8
Éíû@
 10
-17298.7455
 20
14840.23675
 11
-16698.7455
 21
14840.23675
  0
LINE
  8
Éíû@
 10
-16698.7455
 20
5840.23675
 11
-16698.7455
 21
14840.23675
  0
POINT
  8
Éíû@
 10
-16698.7455
 20
5840.23675
  0
POINT
  8
Éíû@
 10
-16698.7455
 20
14840.23675
  0
TEXT
  7
TextStyle03
  8
Éíû@
  6
CONTINUOUS
 10
-16737.5
 20
9927.5
  1
2,700
 40
300.0
 50
90.0
 72
     5
 11
-16737.5
 21
10752.5
  0
ENDBLK
  0
BLOCK
  2
*DIM_0127
 70
    65
 10
0.0
 20
0.0
  0
LINE
  8
Éíû@
 10
-17898.7455
 20
14740.23675
 11
-17298.7455
 21
14740.23675
  0
LINE
  8
Éíû@
 10
-17898.7455
 20
14840.23675
 11
-17298.7455
 21
14840.23675
  0
LINE
  8
Éíû@
 10
-17298.7455
 20
14740.23675
 11
-17298.7455
 21
14840.23675
  0
POINT
  8
Éíû@
 10
-17298.7455
 20
14740.23675
  0
POINT
  8
Éíû@
 10
-17298.7455
 20
14840.23675
  0
TEXT
  7
TextStyle03
  8
Éíû@
  6
CONTINUOUS
 10
-17337.5
 20
14968.125
  1
30
 40
300.0
 50
90.0
 72
     5
 11
-17337.5
 21
15286.875
  0
ENDBLK
  0
BLOCK
  2
*DIM_0128
 70
    65
 10
0.0
 20
0.0
  0
LINE
  8
Éíû@
 10
-24211.59675
 20
4707.27725
 11
-24211.59675
 21
4107.27725
  0
LINE
  8
Éíû@
 10
-20211.59675
 20
4707.27725
 11
-20211.59675
 21
4107.27725
  0
LINE
  8
Éíû@
 10
-24211.59675
 20
4107.27725
 11
-20211.59675
 21
4107.27725
  0
POINT
  8
Éíû@
 10
-24211.59675
 20
4107.27725
  0
POINT
  8
Éíû@
 10
-20211.59675
 20
4107.27725
  0
TEXT
  7
TextStyle03
  8
Éíû@
  6
CONTINUOUS
 10
-22625.0
 20
4142.5
  1
1,200
 40
300.0
 72
     5
 11
-21800.0
 21
4142.5
  0
ENDBLK
  0
BLOCK
  2
*DIM_0129
 70
    65
 10
0.0
 20
0.0
  0
LINE
  8
Éíû@
 10
-17898.7455
 20
5840.23675
 11
-17298.7455
 21
5840.23675
  0
LINE
  8
Éíû@
 10
-17898.7455
 20
8506.9035
 11
-17298.7455
 21
8506.9035
  0
LINE
  8
Éíû@
 10
-17298.7455
 20
5840.23675
 11
-17298.7455
 21
8506.9035
  0
POINT
  8
Éíû@
 10
-17298.7455
 20
5840.23675
  0
POINT
  8
Éíû@
 10
-17298.7455
 20
8506.9035
  0
TEXT
  7
TextStyle03
  8
Éíû@
  6
CONTINUOUS
 10
-17335.0
 20
6928.75
  1
800
 40
300.0
 50
90.0
 72
     5
 11
-17335.0
 21
7416.25
  0
ENDBLK
  0
BLOCK
  2
*DIM_0130
 70
    65
 10
0.0
 20
0.0
  0
LINE
  8
Éíû@
 10
-17898.7455
 20
8506.9035
 11
-17298.7455
 21
8506.9035
  0
LINE
  8
Éíû@
 10
-17898.7455
 20
14740.23675
 11
-17298.7455
 21
14740.23675
  0
LINE
  8
Éíû@
 10
-17298.7455
 20
8506.9035
 11
-17298.7455
 21
14740.23675
  0
POINT
  8
Éíû@
 10
-17298.7455
 20
8506.9035
  0
POINT
  8
Éíû@
 10
-17298.7455
 20
14740.23675
  0
TEXT
  7
TextStyle03
  8
Éíû@
  6
CONTINUOUS
 10
-17335.0
 20
11210.0
  1
1,870
 40
300.0
 50
90.0
 72
     5
 11
-17335.0
 21
12035.0
  0
ENDBLK
  0
BLOCK
  2
*DIM_0131
 70
    65
 10
0.0
 20
0.0
  0
LINE
  8
Éíû@
 10
4106.988
 20
15254.871
 11
4106.988
 21
15854.871
  0
LINE
  8
Éíû@
 10
4940.32125
 20
15254.871
 11
4940.32125
 21
15854.871
  0
LINE
  8
Éíû@
 10
4106.988
 20
15854.871
 11
4940.32125
 21
15854.871
  0
POINT
  8
Éíû@
 10
4106.988
 20
15854.871
  0
POINT
  8
Éíû@
 10
4940.32125
 20
15854.871
  0
TEXT
  7
TextStyle03
  8
Éíû@
  6
CONTINUOUS
 10
4278.75
 20
15890.0
  1
250
 40
300.0
 72
     5
 11
4766.25
 21
15890.0
  0
ENDBLK
  0
BLOCK
  2
*DIM_0132
 70
    65
 10
0.0
 20
0.0
  0
LINE
  8
Éíû@
 10
5773.6545
 20
15254.871
 11
5773.6545
 21
15854.871
  0
LINE
  8
Éíû@
 10
4940.32125
 20
15854.871
 11
5773.6545
 21
15854.871
  0
POINT
  8
Éíû@
 10
5773.6545
 20
15854.871
  0
TEXT
  7
TextStyle03
  8
Éíû@
  6
CONTINUOUS
 10
5111.25
 20
15890.0
  1
250
 40
300.0
 72
     5
 11
5598.75
 21
15890.0
  0
ENDBLK
  0
BLOCK
  2
*DIM_0133
 70
    65
 10
0.0
 20
0.0
  0
LINE
  8
Éíû@
 10
10940.32125
 20
15254.871
 11
10940.32125
 21
15854.871
  0
LINE
  8
Éíû@
 10
13606.988
 20
15254.871
 11
13606.988
 21
15854.871
  0
LINE
  8
Éíû@
 10
10940.32125
 20
15854.871
 11
13606.988
 21
15854.871
  0
POINT
  8
Éíû@
 10
10940.32125
 20
15854.871
  0
POINT
  8
Éíû@
 10
13606.988
 20
15854.871
  0
TEXT
  7
TextStyle03
  8
Éíû@
  6
CONTINUOUS
 10
12028.75
 20
15890.0
  1
800
 40
300.0
 72
     5
 11
12516.25
 21
15890.0
  0
ENDBLK
  0
BLOCK
  2
*DIM_0134
 70
    65
 10
0.0
 20
0.0
  0
LINE
  8
Éíû@
 10
-3726.3455
 20
4707.27725
 11
-3726.3455
 21
4107.27725
  0
LINE
  8
Éíû@
 10
-5059.67875
 20
4707.27725
 11
-5059.67875
 21
4107.27725
  0
LINE
  8
Éíû@
 10
-3726.3455
 20
4107.27725
 11
-5059.67875
 21
4107.27725
  0
POINT
  8
Éíû@
 10
-3726.3455
 20
4107.27725
  0
POINT
  8
Éíû@
 10
-5059.67875
 20
4107.27725
  0
TEXT
  7
TextStyle03
  8
Éíû@
  6
CONTINUOUS
 10
-4638.75
 20
4142.5
  1
400
 40
300.0
 72
     5
 11
-4151.25
 21
4142.5
  0
ENDBLK
  0
BLOCK
  2
*DIM_0135
 70
    65
 10
0.0
 20
0.0
  0
LINE
  8
Éíû@
 10
2940.32125
 20
9314.00125
 11
4873.6545
 21
9314.00125
  0
POINT
  8
Éíû@
 10
2940.32125
 20
9314.00125
  0
POINT
  8
Éíû@
 10
4873.6545
 20
9314.00125
  0
TEXT
  7
TextStyle03
  8
Éíû@
  6
CONTINUOUS
 10
3661.25
 20
9350.0
  1
580
 40
300.0
 72
     5
 11
4148.75
 21
9350.0
  0
ENDBLK
  0
BLOCK
  2
*DIM_0136
 70
    65
 10
0.0
 20
0.0
  0
LINE
  8
Éíû@
 10
5006.98775
 20
9314.00125
 11
6940.32125
 21
9314.00125
  0
POINT
  8
Éíû@
 10
6940.32125
 20
9314.00125
  0
TEXT
  7
TextStyle03
  8
Éíû@
  6
CONTINUOUS
 10
5728.75
 20
9350.0
  1
580
 40
300.0
 72
     5
 11
6216.25
 21
9350.0
  0
ENDBLK
  0
BLOCK
  2
*DIM_0137
 70
    65
 10
0.0
 20
0.0
  0
LINE
  8
Éíû@
 10
4873.6545
 20
9314.00125
 11
5006.98775
 21
9314.00125
  0
POINT
  8
Éíû@
 10
5006.98775
 20
9314.00125
  0
TEXT
  7
TextStyle03
  8
Éíû@
  6
CONTINUOUS
 10
5050.625
 20
9350.0
  1
40
 40
300.0
 72
     5
 11
5369.375
 21
9350.0
  0
ENDBLK
  0
BLOCK
  2
*DIM_0138
 70
    65
 10
0.0
 20
0.0
  0
LINE
  8
Éíû@
 10
2940.32125
 20
4707.27725
 11
2940.32125
 21
4107.27725
  0
LINE
  8
Éíû@
 10
6940.32125
 20
4707.27725
 11
6940.32125
 21
4107.27725
  0
LINE
  8
Éíû@
 10
2940.32125
 20
4107.27725
 11
6940.32125
 21
4107.27725
  0
POINT
  8
Éíû@
 10
2940.32125
 20
4107.27725
  0
POINT
  8
Éíû@
 10
6940.32125
 20
4107.27725
  0
TEXT
  7
TextStyle03
  8
Éíû@
  6
CONTINUOUS
 10
4527.5
 20
4142.5
  1
1,200
 40
300.0
 72
     5
 11
5352.5
 21
4142.5
  0
ENDBLK
  0
BLOCK
  2
*DIM_0139
 70
    65
 10
0.0
 20
0.0
  0
LINE
  8
Éíû@
 10
10273.6545
 20
4707.27725
 11
10273.6545
 21
4107.27725
  0
LINE
  8
Éíû@
 10
14273.6545
 20
4707.27725
 11
14273.6545
 21
4107.27725
  0
LINE
  8
Éíû@
 10
10273.6545
 20
4107.27725
 11
14273.6545
 21
4107.27725
  0
POINT
  8
Éíû@
 10
10273.6545
 20
4107.27725
  0
POINT
  8
Éíû@
 10
14273.6545
 20
4107.27725
  0
TEXT
  7
TextStyle03
  8
Éíû@
  6
CONTINUOUS
 10
11860.0
 20
4142.5
  1
1,200
 40
300.0
 72
     5
 11
12685.0
 21
4142.5
  0
ENDBLK
  0
BLOCK
  2
*DIM_0140
 70
    65
 10
0.0
 20
0.0
  0
LINE
  8
Éíû@
 10
-618.3905
 20
5840.23675
 11
-18.3905
 21
5840.23675
  0
LINE
  8
Éíû@
 10
-618.3905
 20
8673.57
 11
-18.3905
 21
8673.57
  0
LINE
  8
Éíû@
 10
-18.3905
 20
5840.23675
 11
-18.3905
 21
8673.57
  0
POINT
  8
Éíû@
 10
-18.3905
 20
5840.23675
  0
POINT
  8
Éíû@
 10
-18.3905
 20
8673.57
  0
TEXT
  7
TextStyle03
  8
Éíû@
  6
CONTINUOUS
 10
-55.0
 20
7011.25
  1
850
 40
300.0
 50
90.0
 72
     5
 11
-55.0
 21
7498.75
  0
ENDBLK
  0
BLOCK
  2
*DIM_0141
 70
    65
 10
0.0
 20
0.0
  0
LINE
  8
Éíû@
 10
-1218.3905
 20
10506.9035
 11
-618.3905
 21
10506.9035
  0
LINE
  8
Éíû@
 10
-1218.3905
 20
12440.23675
 11
-618.3905
 21
12440.23675
  0
LINE
  8
Éíû@
 10
-618.3905
 20
10506.9035
 11
-618.3905
 21
12440.23675
  0
POINT
  8
Éíû@
 10
-618.3905
 20
10506.9035
  0
POINT
  8
Éíû@
 10
-618.3905
 20
12440.23675
  0
TEXT
  7
TextStyle03
  8
Éíû@
  6
CONTINUOUS
 10
-655.0
 20
11228.75
  1
580
 40
300.0
 50
90.0
 72
     5
 11
-655.0
 21
11716.25
  0
ENDBLK
  0
BLOCK
  2
*DIM_0142
 70
    65
 10
0.0
 20
0.0
  0
LINE
  8
Éíû@
 10
-618.3905
 20
8673.57
 11
-18.3905
 21
8673.57
  0
LINE
  8
Éíû@
 10
-618.3905
 20
10506.9035
 11
-18.3905
 21
10506.9035
  0
LINE
  8
Éíû@
 10
-18.3905
 20
8673.57
 11
-18.3905
 21
10506.9035
  0
POINT
  8
Éíû@
 10
-18.3905
 20
8673.57
  0
POINT
  8
Éíû@
 10
-18.3905
 20
10506.9035
  0
TEXT
  7
TextStyle03
  8
Éíû@
  6
CONTINUOUS
 10
-55.0
 20
9346.25
  1
550
 40
300.0
 50
90.0
 72
     5
 11
-55.0
 21
9833.75
  0
ENDBLK
  0
BLOCK
  2
*DIM_0143
 70
    65
 10
0.0
 20
0.0
  0
LINE
  8
Éíû@
 10
10273.6545
 20
11061.332
 11
10273.6545
 21
11661.332
  0
LINE
  8
Éíû@
 10
10940.32125
 20
11061.332
 11
10940.32125
 21
11661.332
  0
LINE
  8
Éíû@
 10
10273.6545
 20
11661.332
 11
10940.32125
 21
11661.332
  0
POINT
  8
Éíû@
 10
10273.6545
 20
11661.332
  0
POINT
  8
Éíû@
 10
10940.32125
 20
11661.332
  0
TEXT
  7
TextStyle03
  8
Éíû@
  6
CONTINUOUS
 10
10363.75
 20
11697.5
  1
200
 40
300.0
 72
     5
 11
10851.25
 21
11697.5
  0
ENDBLK
  0
BLOCK
  2
*DIM_0144
 70
    65
 10
0.0
 20
0.0
  0
LINE
  8
Éíû@
 10
13606.988
 20
11061.332
 11
13606.988
 21
11661.332
  0
LINE
  8
Éíû@
 10
14273.6545
 20
11061.332
 11
14273.6545
 21
11661.332
  0
LINE
  8
Éíû@
 10
13606.988
 20
11661.332
 11
14273.6545
 21
11661.332
  0
POINT
  8
Éíû@
 10
13606.988
 20
11661.332
  0
POINT
  8
Éíû@
 10
14273.6545
 20
11661.332
  0
TEXT
  7
TextStyle03
  8
Éíû@
  6
CONTINUOUS
 10
13696.25
 20
11697.5
  1
200
 40
300.0
 72
     5
 11
14183.75
 21
11697.5
  0
ENDBLK
  0
BLOCK
  2
*DIM_0145
 70
    65
 10
0.0
 20
0.0
  0
LINE
  8
Éíû@
 10
15820.298
 20
14840.23675
 11
16420.298
 21
14840.23675
  0
LINE
  8
Éíû@
 10
16420.298
 20
14740.23675
 11
16420.298
 21
14840.23675
  0
POINT
  8
Éíû@
 10
16420.298
 20
14840.23675
  0
TEXT
  7
TextStyle03
  8
Éíû@
  6
CONTINUOUS
 10
16380.0
 20
14968.125
  1
30
 40
300.0
 50
90.0
 72
     5
 11
16380.0
 21
15286.875
  0
ENDBLK
  0
BLOCK
  2
*DIM_0146
 70
    65
 10
0.0
 20
0.0
  0
LINE
  8
Éíû@
 10
15820.298
 20
5840.23675
 11
16420.298
 21
5840.23675
  0
LINE
  8
Éíû@
 10
15820.298
 20
8673.57
 11
16420.298
 21
8673.57
  0
LINE
  8
Éíû@
 10
16420.298
 20
5840.23675
 11
16420.298
 21
8673.57
  0
POINT
  8
Éíû@
 10
16420.298
 20
5840.23675
  0
POINT
  8
Éíû@
 10
16420.298
 20
8673.57
  0
TEXT
  7
TextStyle03
  8
Éíû@
  6
CONTINUOUS
 10
16382.5
 20
7011.25
  1
850
 40
300.0
 50
90.0
 72
     5
 11
16382.5
 21
7498.75
  0
ENDBLK
  0
BLOCK
  2
*DIM_0147
 70
    65
 10
0.0
 20
0.0
  0
LINE
  8
Éíû@
 10
15820.298
 20
10506.9035
 11
16420.298
 21
10506.9035
  0
LINE
  8
Éíû@
 10
15820.298
 20
14740.23675
 11
16420.298
 21
14740.23675
  0
LINE
  8
Éíû@
 10
16420.298
 20
10506.9035
 11
16420.298
 21
14740.23675
  0
POINT
  8
Éíû@
 10
16420.298
 20
10506.9035
  0
POINT
  8
Éíû@
 10
16420.298
 20
14740.23675
  0
TEXT
  7
TextStyle03
  8
Éíû@
  6
CONTINUOUS
 10
16382.5
 20
12210.0
  1
1,270
 40
300.0
 50
90.0
 72
     5
 11
16382.5
 21
13035.0
  0
ENDBLK
  0
BLOCK
  2
*DIM_0148
 70
    65
 10
0.0
 20
0.0
  0
LINE
  8
Éíû@
 10
15820.298
 20
8673.57
 11
16420.298
 21
8673.57
  0
LINE
  8
Éíû@
 10
15820.298
 20
10506.9035
 11
16420.298
 21
10506.9035
  0
LINE
  8
Éíû@
 10
16420.298
 20
8673.57
 11
16420.298
 21
10506.9035
  0
POINT
  8
Éíû@
 10
16420.298
 20
8673.57
  0
POINT
  8
Éíû@
 10
16420.298
 20
10506.9035
  0
TEXT
  7
TextStyle03
  8
Éíû@
  6
CONTINUOUS
 10
16382.5
 20
9346.25
  1
550
 40
300.0
 50
90.0
 72
     5
 11
16382.5
 21
9833.75
  0
ENDBLK
  0
BLOCK
  2
*DIM_0149
 70
    65
 10
0.0
 20
0.0
  0
LINE
  8
Éíû@
 10
7986.87125
 20
5840.23675
 11
8586.87125
 21
5840.23675
  0
LINE
  8
Éíû@
 10
7986.87125
 20
8506.90325
 11
8586.87125
 21
8506.90325
  0
LINE
  8
Éíû@
 10
8586.87125
 20
5840.23675
 11
8586.87125
 21
8506.90325
  0
POINT
  8
Éíû@
 10
8586.87125
 20
5840.23675
  0
POINT
  8
Éíû@
 10
8586.87125
 20
8506.90325
  0
TEXT
  7
TextStyle03
  8
Éíû@
  6
CONTINUOUS
 10
8550.0
 20
6928.75
  1
800
 40
300.0
 50
90.0
 72
     5
 11
8550.0
 21
7416.25
  0
ENDBLK
  0
BLOCK
  2
*DIM_0150
 70
    65
 10
0.0
 20
0.0
  0
LINE
  8
Éíû@
 10
7986.87125
 20
10506.9035
 11
8586.87125
 21
10506.9035
  0
LINE
  8
Éíû@
 10
8586.87125
 20
8506.90325
 11
8586.87125
 21
10506.9035
  0
POINT
  8
Éíû@
 10
8586.87125
 20
10506.9035
  0
TEXT
  7
TextStyle03
  8
Éíû@
  6
CONTINUOUS
 10
8550.0
 20
9261.25
  1
600
 40
300.0
 50
90.0
 72
     5
 11
8550.0
 21
9748.75
  0
ENDBLK
  0
BLOCK
  2
*DIM_0151
 70
    65
 10
0.0
 20
0.0
  0
LINE
  8
Éíû@
 10
7386.87125
 20
8506.90325
 11
7986.87125
 21
8506.90325
  0
LINE
  8
Éíû@
 10
7386.87125
 20
8373.57
 11
7986.87125
 21
8373.57
  0
LINE
  8
Éíû@
 10
7986.87125
 20
8506.90325
 11
7986.87125
 21
8373.57
  0
POINT
  8
Éíû@
 10
7986.87125
 20
8506.90325
  0
POINT
  8
Éíû@
 10
7986.87125
 20
8373.57
  0
TEXT
  7
TextStyle03
  8
Éíû@
  6
CONTINUOUS
 10
7950.0
 20
8618.125
  1
40
 40
300.0
 50
90.0
 72
     5
 11
7950.0
 21
8936.875
  0
ENDBLK
  0
BLOCK
  2
*DIM_0152
 70
    65
 10
0.0
 20
0.0
  0
LINE
  8
Éíû@
 10
7386.87125
 20
8040.2365
 11
7986.87125
 21
8040.2365
  0
LINE
  8
Éíû@
 10
7986.87125
 20
8373.57
 11
7986.87125
 21
8040.2365
  0
POINT
  8
Éíû@
 10
7986.87125
 20
8040.2365
  0
TEXT
  7
TextStyle03
  8
Éíû@
  6
CONTINUOUS
 10
7950.0
 20
7456.25
  1
100
 40
300.0
 50
90.0
 72
     5
 11
7950.0
 21
7943.75
  0
ENDBLK
  0
BLOCK
  2
*DIM_0153
 70
    65
 10
0.0
 20
0.0
  0
LINE
  8
Éíû@
 10
-8245.8125
 20
5840.23675
 11
-7645.8125
 21
5840.23675
  0
LINE
  8
Éíû@
 10
-8245.8125
 20
8673.57
 11
-7645.8125
 21
8673.57
  0
LINE
  8
Éíû@
 10
-7645.8125
 20
5840.23675
 11
-7645.8125
 21
8673.57
  0
POINT
  8
Éíû@
 10
-7645.8125
 20
5840.23675
  0
POINT
  8
Éíû@
 10
-7645.8125
 20
8673.57
  0
TEXT
  7
TextStyle03
  8
Éíû@
  6
CONTINUOUS
 10
-7682.5
 20
7011.25
  1
850
 40
300.0
 50
90.0
 72
     5
 11
-7682.5
 21
7498.75
  0
ENDBLK
  0
BLOCK
  2
*DIM_0154
 70
    65
 10
0.0
 20
0.0
  0
LINE
  8
Éíû@
 10
-9757.55125
 20
15254.871
 11
-9757.55125
 21
15854.871
  0
LINE
  8
Éíû@
 10
-10924.218
 20
15854.871
 11
-9757.55125
 21
15854.871
  0
POINT
  8
Éíû@
 10
-9757.55125
 20
15854.871
  0
TEXT
  7
TextStyle03
  8
Éíû@
  6
CONTINUOUS
 10
-10583.75
 20
15890.0
  1
350
 40
300.0
 72
     5
 11
-10096.25
 21
15890.0
  0
ENDBLK
  0
BLOCK
  2
*DIM_0155
 70
    65
 10
0.0
 20
0.0
  0
LINE
  8
Éíû@
 10
-10924.218
 20
12285.15975
 11
-10924.218
 21
11685.15975
  0
LINE
  8
Éíû@
 10
-10257.55125
 20
12285.15975
 11
-10257.55125
 21
11685.15975
  0
LINE
  8
Éíû@
 10
-10924.218
 20
11685.15975
 11
-10257.55125
 21
11685.15975
  0
POINT
  8
Éíû@
 10
-10924.218
 20
11685.15975
  0
POINT
  8
Éíû@
 10
-10257.55125
 20
11685.15975
  0
TEXT
  7
TextStyle03
  8
Éíû@
  6
CONTINUOUS
 10
-10831.25
 20
11722.5
  1
200
 40
300.0
 72
     5
 11
-10343.75
 21
11722.5
  0
ENDBLK
  0
BLOCK
  2
*DIM_0156
 70
    65
 10
0.0
 20
0.0
  0
LINE
  8
Éíû@
 10
-10257.55125
 20
12285.15975
 11
-10257.55125
 21
11685.15975
  0
LINE
  8
Éíû@
 10
-9757.55125
 20
12285.15975
 11
-9757.55125
 21
11685.15975
  0
LINE
  8
Éíû@
 10
-10257.55125
 20
11685.15975
 11
-9757.55125
 21
11685.15975
  0
POINT
  8
Éíû@
 10
-10257.55125
 20
11685.15975
  0
POINT
  8
Éíû@
 10
-9757.55125
 20
11685.15975
  0
TEXT
  7
TextStyle03
  8
Éíû@
  6
CONTINUOUS
 10
-10248.75
 20
11722.5
  1
150
 40
300.0
 72
     5
 11
-9761.25
 21
11722.5
  0
ENDBLK
  0
BLOCK
  2
*DIM_0157
 70
    65
 10
0.0
 20
0.0
  0
LINE
  8
Éíû@
 10
-15257.55125
 20
15254.871
 11
-15257.55125
 21
15854.871
  0
LINE
  8
Éíû@
 10
-10924.218
 20
15254.871
 11
-10924.218
 21
15854.871
  0
LINE
  8
Éíû@
 10
-15257.55125
 20
15854.871
 11
-10924.218
 21
15854.871
  0
POINT
  8
Éíû@
 10
-15257.55125
 20
15854.871
  0
POINT
  8
Éíû@
 10
-10924.218
 20
15854.871
  0
TEXT
  7
TextStyle03
  8
Éíû@
  6
CONTINUOUS
 10
-13500.0
 20
15890.0
  1
1,300
 40
300.0
 72
     5
 11
-12675.0
 21
15890.0
  0
ENDBLK
  0
BLOCK
  2
*DIM_0158
 70
    65
 10
0.0
 20
0.0
  0
LINE
  8
Éíû@
 10
-10257.55125
 20
5307.27725
 11
-10257.55125
 21
4707.27725
  0
LINE
  8
Éíû@
 10
-15257.55125
 20
5307.27725
 11
-15257.55125
 21
4707.27725
  0
LINE
  8
Éíû@
 10
-10257.55125
 20
4707.27725
 11
-15257.55125
 21
4707.27725
  0
POINT
  8
Éíû@
 10
-10257.55125
 20
4707.27725
  0
POINT
  8
Éíû@
 10
-15257.55125
 20
4707.27725
  0
TEXT
  7
TextStyle03
  8
Éíû@
  6
CONTINUOUS
 10
-13167.5
 20
4742.5
  1
1,500
 40
300.0
 72
     5
 11
-12342.5
 21
4742.5
  0
ENDBLK
  0
BLOCK
  2
*DIM_0159
 70
    65
 10
0.0
 20
0.0
  0
LINE
  8
Éíû@
 10
-8924.218
 20
5307.27725
 11
-8924.218
 21
4707.27725
  0
LINE
  8
Éíû@
 10
-10257.55125
 20
5307.27725
 11
-10257.55125
 21
4707.27725
  0
LINE
  8
Éíû@
 10
-8924.218
 20
4707.27725
 11
-10257.55125
 21
4707.27725
  0
POINT
  8
Éíû@
 10
-8924.218
 20
4707.27725
  0
POINT
  8
Éíû@
 10
-10257.55125
 20
4707.27725
  0
TEXT
  7
TextStyle03
  8
Éíû@
  6
CONTINUOUS
 10
-9831.25
 20
4742.5
  1
400
 40
300.0
 72
     5
 11
-9343.75
 21
4742.5
  0
ENDBLK
  0
BLOCK
  2
*DIM_0160
 70
    65
 10
0.0
 20
0.0
  0
LINE
  8
Éíû@
 10
-15257.55125
 20
4707.27725
 11
-15257.55125
 21
4107.27725
  0
LINE
  8
Éíû@
 10
-8924.218
 20
4707.27725
 11
-8924.218
 21
4107.27725
  0
LINE
  8
Éíû@
 10
-15257.55125
 20
4107.27725
 11
-8924.218
 21
4107.27725
  0
POINT
  8
Éíû@
 10
-15257.55125
 20
4107.27725
  0
POINT
  8
Éíû@
 10
-8924.218
 20
4107.27725
  0
TEXT
  7
TextStyle03
  8
Éíû@
  6
CONTINUOUS
 10
-12500.0
 20
4142.5
  1
1,900
 40
300.0
 72
     5
 11
-11675.0
 21
4142.5
  0
ENDBLK
  0
BLOCK
  2
*DIM_0161
 70
    65
 10
0.0
 20
0.0
  0
LINE
  8
Éíû@
 10
-5726.3455
 20
12285.15975
 11
-5726.3455
 21
11685.15975
  0
LINE
  8
Éíû@
 10
-5059.67875
 20
12285.15975
 11
-5059.67875
 21
11685.15975
  0
LINE
  8
Éíû@
 10
-5726.3455
 20
11685.15975
 11
-5059.67875
 21
11685.15975
  0
POINT
  8
Éíû@
 10
-5726.3455
 20
11685.15975
  0
POINT
  8
Éíû@
 10
-5059.67875
 20
11685.15975
  0
TEXT
  7
TextStyle03
  8
Éíû@
  6
CONTINUOUS
 10
-5636.25
 20
11722.5
  1
200
 40
300.0
 72
     5
 11
-5148.75
 21
11722.5
  0
ENDBLK
  0
BLOCK
  2
*DIM_0162
 70
    65
 10
0.0
 20
0.0
  0
LINE
  8
Éíû@
 10
-618.3905
 20
10506.9035
 11
-18.3905
 21
10506.9035
  0
LINE
  8
Éíû@
 10
-618.3905
 20
14740.23675
 11
-18.3905
 21
14740.23675
  0
LINE
  8
Éíû@
 10
-18.3905
 20
10506.9035
 11
-18.3905
 21
14740.23675
  0
POINT
  8
Éíû@
 10
-18.3905
 20
10506.9035
  0
POINT
  8
Éíû@
 10
-18.3905
 20
14740.23675
  0
TEXT
  7
TextStyle03
  8
Éíû@
  6
CONTINUOUS
 10
-55.0
 20
12210.0
  1
1,270
 40
300.0
 50
90.0
 72
     5
 11
-55.0
 21
13035.0
  0
ENDBLK
  0
BLOCK
  2
*DIM_0163
 70
    65
 10
0.0
 20
0.0
  0
LINE
  8
Éíû@
 10
-1218.3905
 20
12440.23675
 11
-618.3905
 21
12440.23675
  0
LINE
  8
Éíû@
 10
-1218.3905
 20
13406.9035
 11
-618.3905
 21
13406.9035
  0
LINE
  8
Éíû@
 10
-618.3905
 20
12440.23675
 11
-618.3905
 21
13406.9035
  0
POINT
  8
Éíû@
 10
-618.3905
 20
12440.23675
  0
POINT
  8
Éíû@
 10
-618.3905
 20
13406.9035
  0
TEXT
  7
TextStyle03
  8
Éíû@
  6
CONTINUOUS
 10
-655.0
 20
12678.75
  1
290
 40
300.0
 50
90.0
 72
     5
 11
-655.0
 21
13166.25
  0
ENDBLK
  0
BLOCK
  2
*DIM_0164
 70
    65
 10
0.0
 20
0.0
  0
LINE
  8
Éíû@
 10
-1218.3905
 20
13406.9035
 11
-618.3905
 21
13406.9035
  0
LINE
  8
Éíû@
 10
-1218.3905
 20
14740.23675
 11
-618.3905
 21
14740.23675
  0
LINE
  8
Éíû@
 10
-618.3905
 20
13406.9035
 11
-618.3905
 21
14740.23675
  0
POINT
  8
Éíû@
 10
-618.3905
 20
13406.9035
  0
POINT
  8
Éíû@
 10
-618.3905
 20
14740.23675
  0
TEXT
  7
TextStyle03
  8
Éíû@
  6
CONTINUOUS
 10
-655.0
 20
13828.75
  1
400
 40
300.0
 50
90.0
 72
     5
 11
-655.0
 21
14316.25
  0
ENDBLK
  0
BLOCK
  2
*DIM_0165
 70
    65
 10
0.0
 20
0.0
  0
LINE
  8
Éíû@
 10
-5059.67875
 20
12285.15975
 11
-5059.67875
 21
11685.15975
  0
LINE
  8
Éíû@
 10
-4559.67875
 20
12285.15975
 11
-4559.67875
 21
11685.15975
  0
LINE
  8
Éíû@
 10
-5059.67875
 20
11685.15975
 11
-4559.67875
 21
11685.15975
  0
POINT
  8
Éíû@
 10
-5059.67875
 20
11685.15975
  0
POINT
  8
Éíû@
 10
-4559.67875
 20
11685.15975
  0
TEXT
  7
TextStyle03
  8
Éíû@
  6
CONTINUOUS
 10
-5053.75
 20
11722.5
  1
150
 40
300.0
 72
     5
 11
-4566.25
 21
11722.5
  0
ENDBLK
  0
BLOCK
  2
*DIM_0166
 70
    65
 10
0.0
 20
0.0
  0
LINE
  8
Éíû@
 10
-5726.3455
 20
15254.871
 11
-5726.3455
 21
15854.871
  0
LINE
  8
Éíû@
 10
-4559.67875
 20
15254.871
 11
-4559.67875
 21
15854.871
  0
LINE
  8
Éíû@
 10
-5726.3455
 20
15854.871
 11
-4559.67875
 21
15854.871
  0
POINT
  8
Éíû@
 10
-5726.3455
 20
15854.871
  0
POINT
  8
Éíû@
 10
-4559.67875
 20
15854.871
  0
TEXT
  7
TextStyle03
  8
Éíû@
  6
CONTINUOUS
 10
-5386.25
 20
15890.0
  1
350
 40
300.0
 72
     5
 11
-4898.75
 21
15890.0
  0
ENDBLK
  0
BLOCK
  2
*DIM_0167
 70
    65
 10
0.0
 20
0.0
  0
LINE
  8
Éíû@
 10
-618.3905
 20
14740.23675
 11
-18.3905
 21
14740.23675
  0
LINE
  8
Éíû@
 10
-618.3905
 20
14840.23675
 11
-18.3905
 21
14840.23675
  0
LINE
  8
Éíû@
 10
-18.3905
 20
14740.23675
 11
-18.3905
 21
14840.23675
  0
POINT
  8
Éíû@
 10
-18.3905
 20
14740.23675
  0
POINT
  8
Éíû@
 10
-18.3905
 20
14840.23675
  0
TEXT
  7
TextStyle03
  8
Éíû@
  6
CONTINUOUS
 10
-55.0
 20
14883.125
  1
30
 40
300.0
 50
90.0
 72
     5
 11
-55.0
 21
15201.875
  0
ENDBLK
  0
BLOCK
  2
*GRP_0168
 70
    65
 10
0.0
 20
0.0
  0
POINT
  8
Éíû@
 10
18901.402
 20
-11291.9135
  0
POLYLINE
  8
Éíû@
 66
     1
  0
VERTEX
  8
Éíû@
 10
18901.402
 20
-11291.9135
  0
VERTEX
  8
Éíû@
 10
19344.34675
 20
-10524.71075
  0
VERTEX
  8
Éíû@
 10
19827.768
 20
-10524.71075
  0
SEQEND
  0
ENDBLK
  0
BLOCK
  2
*DIM_0169
 70
    65
 10
0.0
 20
0.0
  0
LINE
  8
Éíû@
 10
2284.1825
 20
8506.90325
 11
1684.1825
 21
8506.90325
  0
LINE
  8
Éíû@
 10
2284.1825
 20
9173.57
 11
1684.1825
 21
9173.57
  0
LINE
  8
Éíû@
 10
1684.1825
 20
8506.90325
 11
1684.1825
 21
9173.57
  0
POINT
  8
Éíû@
 10
1684.1825
 20
8506.90325
  0
POINT
  8
Éíû@
 10
1684.1825
 20
9173.57
  0
TEXT
  7
TextStyle03
  8
Éíû@
  6
CONTINUOUS
 10
1645.0
 20
8596.25
  1
200
 40
300.0
 50
90.0
 72
     5
 11
1645.0
 21
9083.75
  0
ENDBLK
  0
BLOCK
  2
*DIM_0170
 70
    65
 10
0.0
 20
0.0
  0
LINE
  8
Éíû@
 10
2940.32125
 20
5307.27725
 11
2940.32125
 21
4707.27725
  0
LINE
  8
Éíû@
 10
4606.988
 20
5307.27725
 11
4606.988
 21
4707.27725
  0
LINE
  8
Éíû@
 10
2940.32125
 20
4707.27725
 11
4606.988
 21
4707.27725
  0
POINT
  8
Éíû@
 10
2940.32125
 20
4707.27725
  0
POINT
  8
Éíû@
 10
4606.988
 20
4707.27725
  0
TEXT
  7
TextStyle03
  8
Éíû@
  6
CONTINUOUS
 10
3528.75
 20
4742.5
  1
500
 40
300.0
 72
     5
 11
4016.25
 21
4742.5
  0
ENDBLK
  0
BLOCK
  2
*DIM_0171
 70
    65
 10
0.0
 20
0.0
  0
LINE
  8
Éíû@
 10
5273.6545
 20
5307.27725
 11
5273.6545
 21
4707.27725
  0
LINE
  8
Éíû@
 10
4606.988
 20
4707.27725
 11
5273.6545
 21
4707.27725
  0
POINT
  8
Éíû@
 10
5273.6545
 20
4707.27725
  0
TEXT
  7
TextStyle03
  8
Éíû@
  6
CONTINUOUS
 10
4696.25
 20
4742.5
  1
200
 40
300.0
 72
     5
 11
5183.75
 21
4742.5
  0
ENDBLK
  0
BLOCK
  2
*DIM_0172
 70
    65
 10
0.0
 20
0.0
  0
LINE
  8
Éíû@
 10
6940.32125
 20
5307.27725
 11
6940.32125
 21
4707.27725
  0
LINE
  8
Éíû@
 10
5273.6545
 20
4707.27725
 11
6940.32125
 21
4707.27725
  0
POINT
  8
Éíû@
 10
6940.32125
 20
4707.27725
  0
TEXT
  7
TextStyle03
  8
Éíû@
  6
CONTINUOUS
 10
5861.25
 20
4742.5
  1
500
 40
300.0
 72
     5
 11
6348.75
 21
4742.5
  0
ENDBLK
  0
ENDSEC
  0
SECTION
  2
ENTITIES
  0
POLYLINE
  8
┌▓È1
  6
CONTINUOUS
 66
     1
 70
     1
  0
VERTEX
  8
┌▓È1
 10
-29700.0
 20
-21000.0
  0
VERTEX
  8
┌▓È1
 10
29700.0
 20
-21000.0
  0
VERTEX
  8
┌▓È1
 10
29700.0
 20
21000.0
  0
VERTEX
  8
┌▓È1
 10
-29700.0
 20
21000.0
  0
SEQEND
  0
LINE
  8
┌▓È1
 10
-20542.12975
 20
25632.74675
 11
-20542.12975
 21
30781.8575
  0
LINE
  8
┌▓È1
 10
-11671.081
 20
25632.74675
 11
-11671.081
 21
30781.8575
  0
LINE
  8
┌▓È1
 10
5065.29025
 20
27857.14175
 11
5065.29025
 21
22153.6695
  0
LINE
  8
┌▓È1
 10
15708.748
 20
23992.8565
 11
15708.748
 21
29141.96725
  0
LINE
  8
┌▓È1
 10
-6319.208
 20
-13958.58
 11
-6319.208
 21
-9051.01075
  0
LINE
  8
┌▓È1
 10
-25373.0325
 20
-13958.58
 11
-2443.787
 21
-13958.58
  0
LINE
  8
┌▓È1
 10
1209.70725
 20
-7007.5345
 11
1209.70725
 21
-13958.58
  0
LINE
  8
┌▓È1
 10
5477.69225
 20
-13958.58
 11
1209.70725
 21
-13958.58
  0
LINE
  8
┌▓È1
 10
11884.95225
 20
-13958.58
 11
6500.87775
 21
-13958.58
  0
LINE
  8
┌▓È1
 10
24259.455
 20
-13958.58
 11
14939.9285
 21
-13958.58
  0
LINE
  8
┌▓È1
 10
-26953.398
 20
5840.23675
 11
17289.3205
 21
5840.23675
  0
LINE
  8
┌▓È1
 10
-26953.398
 20
14840.23675
 11
17289.3205
 21
14840.23675
  0
LINE
  8
┌▓È1
 10
-25373.0325
 20
-5674.55625
 11
-16229.12625
 21
-5674.55625
  0
LINE
  8
┌▓È2
 10
7448.3355
 20
-13958.58
 11
7448.3355
 21
-7007.5345
  0
LINE
  8
┌▓È2
 10
9966.66875
 20
-13958.58
 11
9966.66875
 21
-7007.5345
  0
LINE
  8
┌▓È2
 10
3209.70725
 20
-13958.58
 11
3209.70725
 21
-7007.5345
  0
LINE
  8
┌▓È3
 10
3209.70725
 20
-2409.1225
 11
3209.70725
 21
-2709.1225
  0
LINE
  8
┌▓È3
 10
3209.70725
 20
-2709.1225
 11
1209.70725
 21
-2709.1225
  0
LINE
  8
┌▓È3
 10
3209.70725
 20
-2409.1225
 11
1209.70725
 21
-2409.1225
  0
LINE
  8
┌▓È3
 10
1209.70725
 20
-2409.1225
 11
1209.70725
 21
-1500.89
  0
LINE
  8
┌▓È3
 10
1209.70725
 20
-2709.1225
 11
1209.70725
 21
-5228.6835
  0
LINE
  8
┌▓È3
 10
846.374
 20
-1500.89
 11
846.374
 21
-5228.6835
  0
LINE
  8
┌▓È3
 10
7085.00225
 20
-4425.09925
 11
7085.00225
 21
-1975.09925
  0
LINE
  8
┌▓È3
 10
7085.00225
 20
-1975.09925
 11
10500.00225
 21
-1975.09925
  0
LINE
  8
┌▓È3
 10
9966.66875
 20
-2338.4325
 11
9966.66875
 21
-5240.09925
  0
LINE
  8
┌▓È3
 10
7448.3355
 20
-4788.4325
 11
7448.3355
 21
-2338.4325
  0
LINE
  8
┌▓È3
 10
7448.3355
 20
-2338.4325
 11
10500.00225
 21
-2338.4325
  0
LINE
  8
┌▓È3
 10
10500.00225
 20
-4706.76575
 11
10783.3355
 21
-4706.76575
  0
LINE
  8
┌▓È3
 10
10700.00225
 20
-4506.76575
 11
10783.3355
 21
-4506.76575
  0
LINE
  8
┌▓È3
 10
9966.66875
 20
-5240.09925
 11
10866.66875
 21
-5240.09925
  0
LINE
  8
┌▓È3
 10
10700.00225
 20
-4506.76575
 11
10700.00225
 21
-987.659
  0
LINE
  8
┌▓È3
 10
10500.00225
 20
-4706.76575
 11
10500.00225
 21
-987.659
  0
LINE
  8
┌▓È3
 10
7085.00225
 20
-4425.09925
 11
6474.082
 21
-4425.09925
  0
LINE
  8
┌▓È3
 10
7448.3355
 20
-4788.4325
 11
6474.082
 21
-4788.4325
  0
LINE
  8
┌▓È3
 10
17192.177
 20
-4506.95275
 11
17192.177
 21
-2456.95275
  0
LINE
  8
┌▓È3
 10
17492.177
 20
-4506.95275
 11
17492.177
 21
-2456.95275
  0
LINE
  8
┌▓È3
 10
17492.177
 20
-2456.95275
 11
18425.51025
 21
-2456.95275
  0
LINE
  8
┌▓È3
 10
22258.8435
 20
-2456.95275
 11
22525.51025
 21
-2456.95275
  0
LINE
  8
┌▓È3
 10
22825.51025
 20
-2456.95275
 11
23425.51025
 21
-2456.95275
  0
LINE
  8
┌▓È3
 10
22342.177
 20
-1923.6195
 11
23342.177
 21
-1923.6195
  0
LINE
  8
┌▓È3
 10
22342.177
 20
-1723.6195
 11
23342.177
 21
-1723.6195
  0
LINE
  8
┌▓È3
 10
17192.177
 20
-2456.95275
 11
15658.15025
 21
-2456.95275
  0
LINE
  8
┌▓È3
 10
18342.177
 20
-1923.6195
 11
15658.15025
 21
-1923.6195
  0
LINE
  8
┌▓È3
 10
18342.177
 20
-1723.6195
 11
15658.15025
 21
-1723.6195
  0
LINE
  8
┌▓È3
 10
22825.51025
 20
-2456.95275
 11
22825.51025
 21
-5722.417
  0
LINE
  8
┌▓È3
 10
22525.51025
 20
-2456.95275
 11
22525.51025
 21
-5722.417
  0
LINE
  8
┌▓È3
 10
22525.51025
 20
-13958.58
 11
22525.51025
 21
-8413.319
  0
INSERT
  2
*GRP_0115
  8
┌▓È4
 10
0.0
 20
0.0
  0
LINE
  8
┌▓È4
 10
3076.374
 20
-2325.789
 11
3076.374
 21
-1500.89
  0
LINE
  8
┌▓È4
 10
2943.0405
 20
-2325.789
 11
2943.0405
 21
-1500.89
  0
INSERT
  2
*GRP_0122
  8
┌▓È4
 10
0.0
 20
0.0
  0
POLYLINE
  8
┌▓È4
 66
     1
 70
     1
  0
VERTEX
  8
┌▓È4
 10
17625.51025
 20
-4506.95275
  0
VERTEX
  8
┌▓È4
 10
17525.51025
 20
-4506.95275
  0
VERTEX
  8
┌▓È4
 10
17525.51025
 20
-6790.286
  0
VERTEX
  8
┌▓È4
 10
17625.51025
 20
-6790.286
  0
SEQEND
  0
POLYLINE
  8
┌▓È4
 66
     1
 70
     1
  0
VERTEX
  8
┌▓È4
 10
17625.51025
 20
-2456.95275
  0
VERTEX
  8
┌▓È4
 10
17492.177
 20
-2456.95275
  0
VERTEX
  8
┌▓È4
 10
17492.177
 20
-2540.286
  0
VERTEX
  8
┌▓È4
 10
17625.51025
 20
-2540.286
  0
SEQEND
  0
LINE
  8
┌▓È4
  6
DASHED
 10
17575.51025
 20
-4506.95275
 11
17575.51025
 21
-2540.286
  0
LINE
  8
┌▓È4
 10
20342.177
 20
-1388.171
 11
20342.177
 21
-2817.1545
  0
POLYLINE
  8
┌▓È4
 66
     1
 70
     1
  0
VERTEX
  8
┌▓È4
 10
18519.0545
 20
-1840.286
  0
VERTEX
  8
┌▓È4
 10
18519.0545
 20
-1740.286
  0
VERTEX
  8
┌▓È4
 10
18752.38775
 20
-1740.286
  0
VERTEX
  8
┌▓È4
 10
18752.38775
 20
-1840.286
  0
SEQEND
  0
POLYLINE
  8
┌▓È4
 66
     1
 70
     1
  0
VERTEX
  8
┌▓È4
 10
20458.8435
 20
-1840.286
  0
VERTEX
  8
┌▓È4
 10
20458.8435
 20
-1740.286
  0
VERTEX
  8
┌▓È4
 10
20225.51025
 20
-1740.286
  0
VERTEX
  8
┌▓È4
 10
20225.51025
 20
-1840.286
  0
SEQEND
  0
LINE
  8
┌▓È4
 10
20225.51025
 20
-1790.286
 11
18752.38775
 21
-1790.286
  0
POLYLINE
  8
┌▓È4
 66
     1
 70
     1
  0
VERTEX
  8
┌▓È4
 10
22165.2995
 20
-1840.286
  0
VERTEX
  8
┌▓È4
 10
22165.2995
 20
-1940.286
  0
VERTEX
  8
┌▓È4
 10
21931.966
 20
-1940.286
  0
VERTEX
  8
┌▓È4
 10
21931.966
 20
-1840.286
  0
SEQEND
  0
POLYLINE
  8
┌▓È4
 66
     1
 70
     1
  0
VERTEX
  8
┌▓È4
 10
20225.51025
 20
-1840.286
  0
VERTEX
  8
┌▓È4
 10
20225.51025
 20
-1940.286
  0
VERTEX
  8
┌▓È4
 10
20458.8435
 20
-1940.286
  0
VERTEX
  8
┌▓È4
 10
20458.8435
 20
-1840.286
  0
SEQEND
  0
LINE
  8
┌▓È4
 10
20458.8435
 20
-1890.286
 11
21931.966
 21
-1890.286
  0
LINE
  8
┌▓È4
 10
18392.177
 20
-1956.95275
 11
18508.8435
 21
-1956.95275
  0
LINE
  8
┌▓È4
 10
18400.51025
 20
-1731.95275
 11
18400.51025
 21
-1948.6195
  0
LINE
  8
┌▓È4
 10
18392.177
 20
-1956.95275
 11
18392.177
 21
-1723.6195
  0
LINE
  8
┌▓È4
 10
18392.177
 20
-1723.6195
 11
18508.8435
 21
-1723.6195
  0
LINE
  8
┌▓È4
 10
18508.8435
 20
-1956.95275
 11
18508.8435
 21
-1723.6195
  0
LINE
  8
┌▓È4
 10
18342.177
 20
-1756.95275
 11
18342.177
 21
-1765.286
  0
LINE
  8
┌▓È4
 10
18392.177
 20
-1756.95275
 11
18342.177
 21
-1756.95275
  0
LINE
  8
┌▓È4
 10
18392.177
 20
-1765.286
 11
18342.177
 21
-1765.286
  0
LINE
  8
┌▓È4
 10
18400.51025
 20
-1948.6195
 11
18502.177
 21
-1948.6195
  0
LINE
  8
┌▓È4
 10
18502.177
 20
-1948.6195
 11
18502.177
 21
-1731.95275
  0
LINE
  8
┌▓È4
 10
18400.51025
 20
-1731.95275
 11
18502.177
 21
-1731.95275
  0
LINE
  8
┌▓È4
 10
22292.177
 20
-1956.95275
 11
22175.51025
 21
-1956.95275
  0
LINE
  8
┌▓È4
 10
22283.8435
 20
-1731.95275
 11
22283.8435
 21
-1948.6195
  0
LINE
  8
┌▓È4
 10
22292.177
 20
-1956.95275
 11
22292.177
 21
-1723.6195
  0
POLYLINE
  8
┌▓È4
 66
     1
 70
     1
  0
VERTEX
  8
┌▓È4
 10
22175.51025
 20
-1956.95275
  0
VERTEX
  8
┌▓È4
 10
22258.8435
 20
-1956.95275
  0
VERTEX
  8
┌▓È4
 10
22258.8435
 20
-2490.286
  0
VERTEX
  8
┌▓È4
 10
22175.51025
 20
-2490.286
  0
SEQEND
  0
LINE
  8
┌▓È4
 10
22292.177
 20
-1723.6195
 11
22175.51025
 21
-1723.6195
  0
LINE
  8
┌▓È4
 10
22175.51025
 20
-1956.95275
 11
22175.51025
 21
-1723.6195
  0
LINE
  8
┌▓È4
 10
22342.177
 20
-1756.95275
 11
22342.177
 21
-1765.286
  0
LINE
  8
┌▓È4
 10
22292.177
 20
-1756.95275
 11
22342.177
 21
-1756.95275
  0
LINE
  8
┌▓È4
 10
22292.177
 20
-1765.286
 11
22342.177
 21
-1765.286
  0
LINE
  8
┌▓È4
 10
22283.8435
 20
-1948.6195
 11
22182.177
 21
-1948.6195
  0
LINE
  8
┌▓È4
 10
22182.177
 20
-1948.6195
 11
22182.177
 21
-1731.95275
  0
LINE
  8
┌▓È4
 10
22283.8435
 20
-1731.95275
 11
22182.177
 21
-1731.95275
  0
LINE
  8
┌▓È4
 10
18508.8435
 20
-1956.95275
 11
18425.51025
 21
-1956.95275
  0
LINE
  8
┌▓È4
 10
18425.51025
 20
-2490.286
 11
18508.8435
 21
-2490.286
  0
LINE
  8
┌▓È4
 10
18425.51025
 20
-1956.95275
 11
18425.51025
 21
-2490.286
  0
LINE
  8
┌▓È4
 10
18508.8435
 20
-1956.95275
 11
18508.8435
 21
-2490.286
  0
LINE
  8
┌▓È4
 10
17492.177
 20
-13958.58
 11
17492.177
 21
-8413.319
  0
LINE
  8
┌▓È4
 10
17592.177
 20
-13958.58
 11
17592.177
 21
-8413.319
  0
LINE
  8
┌▓È5
  6
CONTINUOUS
 10
-20542.12975
 20
30781.8575
 11
-19208.7965
 21
30781.8575
  0
LINE
  8
┌▓È5
  6
CONTINUOUS
 10
-20462.12975
 20
30701.85775
 11
-20482.12975
 21
30701.85775
  0
LINE
  8
┌▓È5
  6
CONTINUOUS
 10
-20482.12975
 20
30681.85775
 11
-20542.12975
 21
30681.85775
  0
LINE
  8
┌▓È5
  6
CONTINUOUS
 10
-20482.12975
 20
30601.85775
 11
-20542.12975
 21
30601.85775
  0
LINE
  8
┌▓È5
  6
CONTINUOUS
 10
-20542.12975
 20
30681.85775
 11
-20482.12975
 21
30601.85775
  0
LINE
  8
┌▓È5
  6
CONTINUOUS
 10
-19208.7965
 20
30781.8575
 11
-19208.7965
 21
30681.8575
  0
LINE
  8
┌▓È5
  6
CONTINUOUS
 10
-19208.7965
 20
30681.8575
 11
-20542.12975
 21
30681.8575
  0
LINE
  8
┌▓È5
  6
CONTINUOUS
 10
-19208.7965
 20
29065.19025
 11
-20462.12975
 21
29065.19025
  0
LINE
  8
┌▓È5
  6
CONTINUOUS
 10
-19208.7965
 20
29148.5235
 11
-20462.12975
 21
29148.5235
  0
LINE
  8
┌▓È5
  6
CONTINUOUS
 10
-19208.7965
 20
29148.5235
 11
-19208.7965
 21
29065.19025
  0
LINE
  8
┌▓È5
  6
CONTINUOUS
 10
-20462.12975
 20
26378.524
 11
-20482.12975
 21
26378.524
  0
LINE
  8
┌▓È5
  6
CONTINUOUS
 10
-20482.12975
 20
26398.524
 11
-20542.12975
 21
26398.524
  0
LINE
  8
┌▓È5
  6
CONTINUOUS
 10
-20482.12975
 20
26478.524
 11
-20542.12975
 21
26478.524
  0
LINE
  8
┌▓È5
  6
CONTINUOUS
 10
-20542.12975
 20
26478.524
 11
-20482.12975
 21
26398.524
  0
LINE
  8
┌▓È5
  6
CONTINUOUS
 10
-20462.12975
 20
26378.524
 11
-20462.12975
 21
30701.85775
  0
LINE
  8
┌▓È5
  6
CONTINUOUS
 10
-20482.12975
 20
26378.524
 11
-20482.12975
 21
30701.85775
  0
LINE
  8
┌▓È5
  6
CONTINUOUS
 10
-19208.79625
 20
28148.52375
 11
-20462.12975
 21
28148.52375
  0
LINE
  8
┌▓È5
  6
CONTINUOUS
 10
-19208.79625
 20
28231.857
 11
-20462.12975
 21
28231.857
  0
LINE
  8
┌▓È5
  6
CONTINUOUS
 10
-19208.79625
 20
28231.857
 11
-19208.79625
 21
28148.52375
  0
LINE
  8
┌▓È5
  6
CONTINUOUS
 10
-19375.463
 20
27231.85725
 11
-20462.12975
 21
27231.85725
  0
LINE
  8
┌▓È5
  6
CONTINUOUS
 10
-19375.463
 20
27315.1905
 11
-20462.12975
 21
27315.1905
  0
LINE
  8
┌▓È5
  6
CONTINUOUS
 10
-19375.463
 20
27315.1905
 11
-19375.463
 21
27231.85725
  0
LINE
  8
┌▓È5
  6
CONTINUOUS
 10
-20542.12975
 20
26315.19075
 11
-19375.463
 21
26315.19075
  0
LINE
  8
┌▓È5
  6
CONTINUOUS
 10
-19375.463
 20
26398.524
 11
-19375.463
 21
26315.19075
  0
LINE
  8
┌▓È5
  6
CONTINUOUS
 10
-19375.463
 20
26398.524
 11
-20542.12975
 21
26398.524
  0
LINE
  8
┌▓È5
  6
CONTINUOUS
 10
-11443.54425
 20
30781.8575
 11
-9280.21075
 21
30781.8575
  0
LINE
  8
┌▓È5
 10
-11523.54425
 20
30781.8575
 11
-11523.54425
 21
26118.204
  0
LINE
  8
┌▓È5
 10
-11443.54425
 20
26118.204
 11
-11443.54425
 21
30781.8575
  0
LINE
  8
┌▓È5
 10
-9190.211
 20
30781.8575
 11
-9190.211
 21
26118.204
  0
LINE
  8
┌▓È5
 10
-9270.211
 20
26118.204
 11
-9270.211
 21
30781.8575
  0
LINE
  8
┌▓È5
  6
CONTINUOUS
 10
-11443.54425
 20
30681.8575
 11
-9280.21075
 21
30681.8575
  0
LINE
  8
┌▓È5
  6
CONTINUOUS
 10
-11443.54425
 20
28031.85775
 11
-9280.21075
 21
28031.85775
  0
LINE
  8
┌▓È5
  6
CONTINUOUS
 10
-11443.54425
 20
27115.19125
 11
-9280.21075
 21
27115.19125
  0
LINE
  8
┌▓È5
  6
CONTINUOUS
 10
-11443.54425
 20
26198.52475
 11
-9280.21075
 21
26198.52475
  0
LINE
  8
┌▓È5
  6
CONTINUOUS
 10
-11523.54425
 20
26115.1915
 11
-9190.211
 21
26115.1915
  0
LINE
  8
┌▓È5
  6
CONTINUOUS
 10
-11443.54425
 20
27031.858
 11
-9270.211
 21
27031.858
  0
LINE
  8
┌▓È5
  6
CONTINUOUS
 10
-11443.54425
 20
27948.5245
 11
-9270.211
 21
27948.5245
  0
LINE
  8
┌▓È5
  6
CONTINUOUS
 10
-11443.54425
 20
28948.52425
 11
-9270.211
 21
28948.52425
  0
LINE
  8
┌▓È5
  6
CONTINUOUS
 10
-11443.54425
 20
28865.191
 11
-9270.211
 21
28865.191
  0
LINE
  8
┌▓È5
 10
-19071.6015
 20
30781.8575
 11
-19071.6015
 21
26318.20325
  0
LINE
  8
┌▓È5
 10
-18991.6015
 20
26318.20325
 11
-18991.6015
 21
30781.8575
  0
LINE
  8
┌▓È5
 10
-15484.93475
 20
26318.20325
 11
-15484.93475
 21
30781.8575
  0
LINE
  8
┌▓È5
  6
CONTINUOUS
 10
-18991.6015
 20
26398.524
 11
-15484.93475
 21
26398.524
  0
LINE
  8
┌▓È5
  6
CONTINUOUS
 10
-18991.6015
 20
30681.8575
 11
-15484.93475
 21
30681.8575
  0
LINE
  8
┌▓È5
  6
CONTINUOUS
 10
-18991.6015
 20
30781.8575
 11
-15404.93475
 21
30781.8575
  0
LINE
  8
┌▓È5
 10
-15404.93475
 20
26318.20325
 11
-15404.93475
 21
30781.8575
  0
LINE
  8
┌▓È5
 10
-15404.93475
 20
30781.8575
 11
-15404.93475
 21
26315.19075
  0
LINE
  8
┌▓È5
  6
CONTINUOUS
 10
-19071.6015
 20
26315.19075
 11
-15404.93475
 21
26315.19075
  0
LINE
  8
┌▓È5
  6
CONTINUOUS
 10
-18991.6015
 20
29148.5235
 11
-15484.93475
 21
29148.5235
  0
LINE
  8
┌▓È5
  6
CONTINUOUS
 10
-18991.6015
 20
28231.857
 11
-15484.93475
 21
28231.857
  0
LINE
  8
┌▓È5
  6
CONTINUOUS
 10
-18991.6015
 20
27315.1905
 11
-15484.93475
 21
27315.1905
  0
LINE
  8
┌▓È5
  6
CONTINUOUS
 10
-18991.6015
 20
27231.85725
 11
-15484.93475
 21
27231.85725
  0
LINE
  8
┌▓È5
  6
CONTINUOUS
 10
-18991.6015
 20
28148.52375
 11
-15484.93475
 21
28148.52375
  0
LINE
  8
┌▓È5
  6
CONTINUOUS
 10
-18991.6015
 20
29065.19025
 11
-15484.93475
 21
29065.19025
  0
LINE
  8
┌▓È5
  6
CONTINUOUS
 10
-11671.081
 20
30781.8575
 11
-10337.74775
 21
30781.8575
  0
LINE
  8
┌▓È5
  6
CONTINUOUS
 10
-11591.081
 20
26178.52475
 11
-11611.081
 21
26178.52475
  0
LINE
  8
┌▓È5
  6
CONTINUOUS
 10
-11611.081
 20
26198.52475
 11
-11671.081
 21
26198.52475
  0
LINE
  8
┌▓È5
  6
CONTINUOUS
 10
-11611.081
 20
26278.52475
 11
-11671.081
 21
26278.52475
  0
LINE
  8
┌▓È5
  6
CONTINUOUS
 10
-11671.081
 20
26278.52475
 11
-11611.081
 21
26198.52475
  0
LINE
  8
┌▓È5
  6
CONTINUOUS
 10
-10337.74775
 20
28865.191
 11
-11591.081
 21
28865.191
  0
LINE
  8
┌▓È5
  6
CONTINUOUS
 10
-10337.74775
 20
28948.52425
 11
-11591.081
 21
28948.52425
  0
LINE
  8
┌▓È5
  6
CONTINUOUS
 10
-10337.74775
 20
28948.52425
 11
-10337.74775
 21
28865.191
  0
LINE
  8
┌▓È5
  6
CONTINUOUS
 10
-11591.081
 20
30701.85775
 11
-11611.081
 21
30701.85775
  0
LINE
  8
┌▓È5
  6
CONTINUOUS
 10
-11611.081
 20
30681.85775
 11
-11671.081
 21
30681.85775
  0
LINE
  8
┌▓È5
  6
CONTINUOUS
 10
-11611.081
 20
30601.85775
 11
-11671.081
 21
30601.85775
  0
LINE
  8
┌▓È5
  6
CONTINUOUS
 10
-11671.081
 20
30681.85775
 11
-11611.081
 21
30601.85775
  0
LINE
  8
┌▓È5
  6
CONTINUOUS
 10
-10337.74775
 20
30781.8575
 11
-10337.74775
 21
30681.8575
  0
LINE
  8
┌▓È5
  6
CONTINUOUS
 10
-10337.74775
 20
30681.8575
 11
-11671.081
 21
30681.8575
  0
LINE
  8
┌▓È5
  6
CONTINUOUS
 10
-11591.081
 20
26178.52475
 11
-11591.081
 21
30701.85775
  0
LINE
  8
┌▓È5
  6
CONTINUOUS
 10
-11611.081
 20
26178.52475
 11
-11611.081
 21
30701.85775
  0
LINE
  8
┌▓È5
  6
CONTINUOUS
 10
-11671.081
 20
26115.1915
 11
-10504.41425
 21
26115.1915
  0
LINE
  8
┌▓È5
  6
CONTINUOUS
 10
-10504.41425
 20
27031.858
 11
-11591.081
 21
27031.858
  0
LINE
  8
┌▓È5
  6
CONTINUOUS
 10
-10504.41425
 20
26198.52475
 11
-10504.41425
 21
26115.1915
  0
LINE
  8
┌▓È5
  6
CONTINUOUS
 10
-10504.41425
 20
26198.52475
 11
-11671.081
 21
26198.52475
  0
LINE
  8
┌▓È5
  6
CONTINUOUS
 10
-10504.41425
 20
27115.19125
 11
-11591.081
 21
27115.19125
  0
LINE
  8
┌▓È5
  6
CONTINUOUS
 10
-10504.41425
 20
27115.19125
 11
-10504.41425
 21
27031.858
  0
LINE
  8
┌▓È5
  6
CONTINUOUS
 10
-10337.7475
 20
27948.5245
 11
-11591.081
 21
27948.5245
  0
LINE
  8
┌▓È5
  6
CONTINUOUS
 10
-10337.7475
 20
28031.85775
 11
-11591.081
 21
28031.85775
  0
LINE
  8
┌▓È5
  6
CONTINUOUS
 10
-10337.7475
 20
28031.85775
 11
-10337.7475
 21
27948.5245
  0
LINE
  8
┌▓È5
  6
CONTINUOUS
 10
5065.29025
 20
27857.14175
 11
6398.6235
 21
27857.14175
  0
LINE
  8
┌▓È5
  6
CONTINUOUS
 10
5145.29025
 20
27777.142
 11
5125.29025
 21
27777.142
  0
LINE
  8
┌▓È5
  6
CONTINUOUS
 10
5125.29025
 20
27757.142
 11
5065.29025
 21
27757.142
  0
LINE
  8
┌▓È5
  6
CONTINUOUS
 10
5125.29025
 20
27677.142
 11
5065.29025
 21
27677.142
  0
LINE
  8
┌▓È5
  6
CONTINUOUS
 10
5065.29025
 20
27757.142
 11
5125.29025
 21
27677.142
  0
LINE
  8
┌▓È5
  6
CONTINUOUS
 10
6398.6235
 20
27857.14175
 11
6398.6235
 21
27757.14175
  0
LINE
  8
┌▓È5
  6
CONTINUOUS
 10
6398.6235
 20
27757.14175
 11
5065.29025
 21
27757.14175
  0
LINE
  8
┌▓È5
  6
CONTINUOUS
 10
7946.65825
 20
27757.14175
 11
12119.99125
 21
27757.14175
  0
LINE
  8
┌▓È5
  6
CONTINUOUS
 10
12199.99125
 20
27857.14175
 11
7866.65825
 21
27857.14175
  0
LINE
  8
┌▓È5
 10
9991.65825
 20
27757.14175
 11
9991.65825
 21
26190.475
  0
LINE
  8
┌▓È5
 10
10074.9915
 20
27757.14175
 11
10074.9915
 21
26190.475
  0
LINE
  8
┌▓È5
  6
CONTINUOUS
 10
7946.65825
 20
26190.475
 11
12119.99125
 21
26190.475
  0
LINE
  8
┌▓È5
  6
CONTINUOUS
 10
7946.65825
 20
26107.14175
 11
12119.99125
 21
26107.14175
  0
LINE
  8
┌▓È5
  6
CONTINUOUS
 10
7946.65825
 20
25273.808
 11
12119.99125
 21
25273.808
  0
LINE
  8
┌▓È5
  6
CONTINUOUS
 10
7946.65825
 20
25190.475
 11
12119.99125
 21
25190.475
  0
LINE
  8
┌▓È5
 10
10074.9915
 20
26107.14175
 11
10074.9915
 21
25273.808
  0
LINE
  8
┌▓È5
 10
9991.65825
 20
26107.14175
 11
9991.65825
 21
25273.808
  0
LINE
  8
┌▓È5
  6
CONTINUOUS
 10
7946.65825
 20
24357.14175
 11
12119.99125
 21
24357.14175
  0
LINE
  8
┌▓È5
  6
CONTINUOUS
 10
7946.65825
 20
24273.8085
 11
12119.99125
 21
24273.8085
  0
LINE
  8
┌▓È5
 10
10074.9915
 20
25190.475
 11
10074.9915
 21
24357.14175
  0
LINE
  8
┌▓È5
 10
9991.65825
 20
25190.475
 11
9991.65825
 21
24357.14175
  0
LINE
  8
┌▓È5
 10
10074.9915
 20
24273.8085
 11
10074.9915
 21
23440.475
  0
LINE
  8
┌▓È5
 10
9991.65825
 20
24273.8085
 11
9991.65825
 21
23440.475
  0
LINE
  8
┌▓È5
 10
7866.65825
 20
27857.14175
 11
7866.65825
 21
23360.15475
  0
LINE
  8
┌▓È5
 10
7946.65825
 20
23360.15475
 11
7946.65825
 21
27857.14175
  0
LINE
  8
┌▓È5
 10
12119.99125
 20
23360.15475
 11
12119.99125
 21
27857.14175
  0
LINE
  8
┌▓È5
  6
CONTINUOUS
 10
7946.65825
 20
23440.475
 11
12119.99125
 21
23440.475
  0
LINE
  8
┌▓È5
 10
12199.99125
 20
23360.15475
 11
12199.99125
 21
27857.14175
  0
LINE
  8
┌▓È5
 10
12199.99125
 20
27857.14175
 11
12199.99125
 21
23357.14225
  0
LINE
  8
┌▓È5
  6
CONTINUOUS
 10
7866.65825
 20
23357.14225
 11
12199.99125
 21
23357.14225
  0
LINE
  8
┌▓È5
 10
10074.9915
 20
23357.14175
 11
10074.9915
 21
23440.475
  0
LINE
  8
┌▓È5
 10
9991.65825
 20
23357.14175
 11
9991.65825
 21
23440.475
  0
LINE
  8
┌▓È5
  6
CONTINUOUS
 10
5145.29025
 20
23420.475
 11
5125.29025
 21
23420.475
  0
LINE
  8
┌▓È5
  6
CONTINUOUS
 10
5125.29025
 20
23440.475
 11
5065.29025
 21
23440.475
  0
LINE
  8
┌▓È5
  6
CONTINUOUS
 10
5125.29025
 20
23520.475
 11
5065.29025
 21
23520.475
  0
LINE
  8
┌▓È5
  6
CONTINUOUS
 10
5065.29025
 20
23520.475
 11
5125.29025
 21
23440.475
  0
LINE
  8
┌▓È5
  6
CONTINUOUS
 10
5145.29025
 20
23420.475
 11
5145.29025
 21
27777.142
  0
LINE
  8
┌▓È5
  6
CONTINUOUS
 10
5125.29025
 20
23420.475
 11
5125.29025
 21
27777.142
  0
LINE
  8
┌▓È5
  6
CONTINUOUS
 10
5065.29025
 20
23357.14175
 11
6231.957
 21
23357.14175
  0
LINE
  8
┌▓È5
  6
CONTINUOUS
 10
6231.957
 20
23440.475
 11
6231.957
 21
23357.14175
  0
LINE
  8
┌▓È5
  6
CONTINUOUS
 10
6231.957
 20
23440.475
 11
5065.29025
 21
23440.475
  0
LINE
  8
┌▓È5
  6
CONTINUOUS
 10
6398.62375
 20
26107.14175
 11
5145.29025
 21
26107.14175
  0
LINE
  8
┌▓È5
  6
CONTINUOUS
 10
6398.62375
 20
26190.475
 11
5145.29025
 21
26190.475
  0
LINE
  8
┌▓È5
  6
CONTINUOUS
 10
6398.62375
 20
26190.475
 11
6398.62375
 21
26107.14175
  0
LINE
  8
┌▓È5
  6
CONTINUOUS
 10
6231.957
 20
24273.80825
 11
5145.29025
 21
24273.80825
  0
LINE
  8
┌▓È5
  6
CONTINUOUS
 10
6231.957
 20
24357.1415
 11
5145.29025
 21
24357.1415
  0
LINE
  8
┌▓È5
  6
CONTINUOUS
 10
6231.957
 20
24357.1415
 11
6231.957
 21
24273.80825
  0
LINE
  8
┌▓È5
  6
CONTINUOUS
 10
6398.62375
 20
25190.47475
 11
5145.29025
 21
25190.47475
  0
LINE
  8
┌▓È5
  6
CONTINUOUS
 10
6398.62375
 20
25273.808
 11
5145.29025
 21
25273.808
  0
LINE
  8
┌▓È5
  6
CONTINUOUS
 10
6398.62375
 20
25273.808
 11
6398.62375
 21
25190.47475
  0
LINE
  8
┌▓È5
 10
18422.19825
 20
29141.96725
 11
18422.19825
 21
24678.313
  0
LINE
  8
┌▓È5
 10
18502.19825
 20
24678.313
 11
18502.19825
 21
29141.96725
  0
LINE
  8
┌▓È5
 10
24008.865
 20
24678.313
 11
24008.865
 21
29141.96725
  0
LINE
  8
┌▓È5
  6
CONTINUOUS
 10
18502.19825
 20
29141.96725
 11
24008.865
 21
29141.96725
  0
LINE
  8
┌▓È5
  6
CONTINUOUS
 10
18502.19825
 20
24758.63375
 11
24008.865
 21
24758.63375
  0
LINE
  8
┌▓È5
  6
CONTINUOUS
 10
18502.19825
 20
27508.63325
 11
21213.86525
 21
27508.63325
  0
LINE
  8
┌▓È5
  6
CONTINUOUS
 10
18502.19825
 20
25675.30025
 11
21213.86525
 21
25675.30025
  0
LINE
  8
┌▓È5
 10
21297.1985
 20
24758.63375
 11
21297.1985
 21
29041.96725
  0
LINE
  8
┌▓È5
 10
21213.86525
 20
24758.63375
 11
21213.86525
 21
29041.96725
  0
LINE
  8
┌▓È5
  6
CONTINUOUS
 10
18502.19825
 20
29041.96725
 11
24008.865
 21
29041.96725
  0
LINE
  8
┌▓È5
 10
24088.865
 20
29141.96725
 11
24088.865
 21
24675.3005
  0
LINE
  8
┌▓È5
  6
CONTINUOUS
 10
18422.19825
 20
24675.3005
 11
24088.865
 21
24675.3005
  0
LINE
  8
┌▓È5
  6
CONTINUOUS
 10
21297.1985
 20
27425.3
 11
24008.865
 21
27425.3
  0
LINE
  8
┌▓È5
  6
CONTINUOUS
 10
21297.1985
 20
27508.63325
 11
24008.865
 21
27508.63325
  0
LINE
  8
┌▓È5
  6
CONTINUOUS
 10
21297.1985
 20
26508.6335
 11
24008.865
 21
26508.6335
  0
LINE
  8
┌▓È5
  6
CONTINUOUS
 10
21297.1985
 20
26591.96675
 11
24008.865
 21
26591.96675
  0
LINE
  8
┌▓È5
  6
CONTINUOUS
 10
21297.1985
 20
25591.967
 11
24008.865
 21
25591.967
  0
LINE
  8
┌▓È5
  6
CONTINUOUS
 10
21297.1985
 20
25675.30025
 11
24008.865
 21
25675.30025
  0
LINE
  8
┌▓È5
  6
CONTINUOUS
 10
21213.86525
 20
27425.3
 11
18502.19825
 21
27425.3
  0
LINE
  8
┌▓È5
  6
CONTINUOUS
 10
21213.86525
 20
26591.96675
 11
18502.19825
 21
26591.96675
  0
LINE
  8
┌▓È5
  6
CONTINUOUS
 10
21213.86525
 20
26508.6335
 11
18502.19825
 21
26508.6335
  0
LINE
  8
┌▓È5
  6
CONTINUOUS
 10
21213.86525
 20
25591.967
 11
18502.19825
 21
25591.967
  0
LINE
  8
┌▓È5
  6
CONTINUOUS
 10
15708.748
 20
29141.96725
 11
17042.08125
 21
29141.96725
  0
LINE
  8
┌▓È5
  6
CONTINUOUS
 10
15788.748
 20
29061.9675
 11
15768.748
 21
29061.9675
  0
LINE
  8
┌▓È5
  6
CONTINUOUS
 10
15768.748
 20
29041.9675
 11
15708.748
 21
29041.9675
  0
LINE
  8
┌▓È5
  6
CONTINUOUS
 10
15768.748
 20
28961.9675
 11
15708.748
 21
28961.9675
  0
LINE
  8
┌▓È5
  6
CONTINUOUS
 10
15708.748
 20
29041.9675
 11
15768.748
 21
28961.9675
  0
LINE
  8
┌▓È5
  6
CONTINUOUS
 10
17042.08125
 20
29141.96725
 11
17042.08125
 21
29041.96725
  0
LINE
  8
┌▓È5
  6
CONTINUOUS
 10
17042.08125
 20
29041.96725
 11
15708.748
 21
29041.96725
  0
LINE
  8
┌▓È5
  6
CONTINUOUS
 10
17042.08125
 20
27425.3
 11
15788.748
 21
27425.3
  0
LINE
  8
┌▓È5
  6
CONTINUOUS
 10
17042.08125
 20
27508.63325
 11
15788.748
 21
27508.63325
  0
LINE
  8
┌▓È5
  6
CONTINUOUS
 10
17042.08125
 20
27508.63325
 11
17042.08125
 21
27425.3
  0
LINE
  8
┌▓È5
  6
CONTINUOUS
 10
15788.748
 20
24738.63375
 11
15768.748
 21
24738.63375
  0
LINE
  8
┌▓È5
  6
CONTINUOUS
 10
15768.748
 20
24758.63375
 11
15708.748
 21
24758.63375
  0
LINE
  8
┌▓È5
  6
CONTINUOUS
 10
15768.748
 20
24838.63375
 11
15708.748
 21
24838.63375
  0
LINE
  8
┌▓È5
  6
CONTINUOUS
 10
15708.748
 20
24838.63375
 11
15768.748
 21
24758.63375
  0
LINE
  8
┌▓È5
  6
CONTINUOUS
 10
15788.748
 20
24738.63375
 11
15788.748
 21
29061.9675
  0
LINE
  8
┌▓È5
  6
CONTINUOUS
 10
15768.748
 20
24738.63375
 11
15768.748
 21
29061.9675
  0
LINE
  8
┌▓È5
  6
CONTINUOUS
 10
17042.0815
 20
26508.6335
 11
15788.748
 21
26508.6335
  0
LINE
  8
┌▓È5
  6
CONTINUOUS
 10
17042.0815
 20
26591.96675
 11
15788.748
 21
26591.96675
  0
LINE
  8
┌▓È5
  6
CONTINUOUS
 10
17042.0815
 20
26591.96675
 11
17042.0815
 21
26508.6335
  0
LINE
  8
┌▓È5
  6
CONTINUOUS
 10
16875.41475
 20
25591.967
 11
15788.748
 21
25591.967
  0
LINE
  8
┌▓È5
  6
CONTINUOUS
 10
16875.41475
 20
25675.30025
 11
15788.748
 21
25675.30025
  0
LINE
  8
┌▓È5
  6
CONTINUOUS
 10
16875.41475
 20
25675.30025
 11
16875.41475
 21
25591.967
  0
LINE
  8
┌▓È5
  6
CONTINUOUS
 10
15708.748
 20
24675.3005
 11
16875.41475
 21
24675.3005
  0
LINE
  8
┌▓È5
  6
CONTINUOUS
 10
16875.41475
 20
24758.63375
 11
16875.41475
 21
24675.3005
  0
LINE
  8
┌▓È5
  6
CONTINUOUS
 10
16875.41475
 20
24758.63375
 11
15708.748
 21
24758.63375
  0
LINE
  8
┌▓È5
 10
-23915.015
 20
-2674.55625
 11
-23915.015
 21
-5674.55625
  0
LINE
  8
┌▓È5
 10
-23915.015
 20
-2674.55625
 11
-18915.015
 21
-2674.55625
  0
LINE
  8
┌▓È5
 10
-23915.015
 20
-5674.55625
 11
-18915.015
 21
-5674.55625
  0
LINE
  8
┌▓È5
 10
-23835.015
 20
-2754.55625
 11
-18995.015
 21
-2754.55625
  0
LINE
  8
┌▓È5
 10
-18995.015
 20
-2754.55625
 11
-18995.015
 21
-5594.55625
  0
LINE
  8
┌▓È5
 10
-18995.015
 20
-5594.55625
 11
-23835.015
 21
-5594.55625
  0
LINE
  8
┌▓È5
 10
-23835.015
 20
-2754.55625
 11
-23835.015
 21
-5594.55625
  0
LINE
  8
┌▓È5
 10
-23207.15775
 20
-5594.55625
 11
-23207.15775
 21
-2754.55625
  0
LINE
  8
┌▓È5
 10
-23137.15775
 20
-5594.55625
 11
-23137.15775
 21
-2754.55625
  0
LINE
  8
┌▓È5
 10
-22504.30075
 20
-5594.55625
 11
-22504.30075
 21
-2754.55625
  0
LINE
  8
┌▓È5
 10
-22434.30075
 20
-5594.55625
 11
-22434.30075
 21
-2754.55625
  0
LINE
  8
┌▓È5
 10
-21801.44375
 20
-5594.55625
 11
-21801.44375
 21
-2754.55625
  0
LINE
  8
┌▓È5
 10
-21731.44375
 20
-5594.55625
 11
-21731.44375
 21
-2754.55625
  0
LINE
  8
┌▓È5
 10
-21098.58625
 20
-5594.55625
 11
-21098.58625
 21
-2754.55625
  0
LINE
  8
┌▓È5
 10
-21028.58625
 20
-5594.55625
 11
-21028.58625
 21
-2754.55625
  0
LINE
  8
┌▓È5
 10
-20395.729
 20
-5594.55625
 11
-20395.729
 21
-2754.55625
  0
LINE
  8
┌▓È5
 10
-20325.729
 20
-5594.55625
 11
-20325.729
 21
-2754.55625
  0
LINE
  8
┌▓È5
 10
-19692.872
 20
-5594.55625
 11
-19692.872
 21
-2754.55625
  0
LINE
  8
┌▓È5
 10
-19622.872
 20
-5594.55625
 11
-19622.872
 21
-2754.55625
  0
LINE
  8
┌▓È5
 10
-23835.015
 20
-3479.55625
 11
-23207.15775
 21
-3479.55625
  0
LINE
  8
┌▓È5
 10
-23835.015
 20
-3409.55625
 11
-23207.15775
 21
-3409.55625
  0
LINE
  8
┌▓È5
 10
-23835.015
 20
-4139.55625
 11
-23207.15775
 21
-4139.55625
  0
LINE
  8
┌▓È5
 10
-23835.015
 20
-4209.55625
 11
-23207.15775
 21
-4209.55625
  0
LINE
  8
┌▓È5
 10
-23835.015
 20
-4869.55625
 11
-23207.15775
 21
-4869.55625
  0
LINE
  8
┌▓È5
 10
-23835.015
 20
-4939.55625
 11
-23207.15775
 21
-4939.55625
  0
LINE
  8
┌▓È5
 10
-23137.15775
 20
-4209.55625
 11
-22504.30075
 21
-4209.55625
  0
LINE
  8
┌▓È5
 10
-23137.15775
 20
-4139.55625
 11
-22504.30075
 21
-4139.55625
  0
LINE
  8
┌▓È5
 10
-23137.15775
 20
-4869.55625
 11
-22504.30075
 21
-4869.55625
  0
LINE
  8
┌▓È5
 10
-23137.15775
 20
-4939.55625
 11
-22504.30075
 21
-4939.55625
  0
LINE
  8
┌▓È5
 10
-23137.15775
 20
-3479.55625
 11
-22504.30075
 21
-3479.55625
  0
LINE
  8
┌▓È5
 10
-23137.15775
 20
-3409.55625
 11
-22504.30075
 21
-3409.55625
  0
LINE
  8
┌▓È5
 10
-22434.30075
 20
-3409.55625
 11
-21801.44375
 21
-3409.55625
  0
LINE
  8
┌▓È5
 10
-22434.30075
 20
-3479.55625
 11
-21801.44375
 21
-3479.55625
  0
LINE
  8
┌▓È5
 10
-22434.30075
 20
-4139.55625
 11
-21801.44375
 21
-4139.55625
  0
LINE
  8
┌▓È5
 10
-22434.30075
 20
-4209.55625
 11
-21801.44375
 21
-4209.55625
  0
LINE
  8
┌▓È5
 10
-22434.30075
 20
-4869.55625
 11
-21801.44375
 21
-4869.55625
  0
LINE
  8
┌▓È5
 10
-22434.30075
 20
-4939.55625
 11
-21801.44375
 21
-4939.55625
  0
LINE
  8
┌▓È5
 10
-21731.44375
 20
-4869.55625
 11
-21098.58625
 21
-4869.55625
  0
LINE
  8
┌▓È5
 10
-21731.44375
 20
-4939.55625
 11
-21098.58625
 21
-4939.55625
  0
LINE
  8
┌▓È5
 10
-21731.44375
 20
-4139.55625
 11
-21098.58625
 21
-4139.55625
  0
LINE
  8
┌▓È5
 10
-21731.44375
 20
-4209.55625
 11
-21098.58625
 21
-4209.55625
  0
LINE
  8
┌▓È5
 10
-21731.44375
 20
-3409.55625
 11
-21098.58625
 21
-3409.55625
  0
LINE
  8
┌▓È5
 10
-21731.44375
 20
-3479.55625
 11
-21098.58625
 21
-3479.55625
  0
LINE
  8
┌▓È5
 10
-21028.58625
 20
-3479.55625
 11
-20395.729
 21
-3479.55625
  0
LINE
  8
┌▓È5
 10
-21028.58625
 20
-3409.55625
 11
-20395.729
 21
-3409.55625
  0
LINE
  8
┌▓È5
 10
-21028.58625
 20
-4209.55625
 11
-20395.729
 21
-4209.55625
  0
LINE
  8
┌▓È5
 10
-21028.58625
 20
-4139.55625
 11
-20395.729
 21
-4139.55625
  0
LINE
  8
┌▓È5
 10
-21028.58625
 20
-4869.55625
 11
-20395.729
 21
-4869.55625
  0
LINE
  8
┌▓È5
 10
-21028.58625
 20
-4939.55625
 11
-20395.729
 21
-4939.55625
  0
LINE
  8
┌▓È5
 10
-20325.729
 20
-4939.55625
 11
-19692.872
 21
-4939.55625
  0
LINE
  8
┌▓È5
 10
-19622.872
 20
-4939.55625
 11
-18995.015
 21
-4939.55625
  0
LINE
  8
┌▓È5
 10
-20325.729
 20
-4869.55625
 11
-19692.872
 21
-4869.55625
  0
LINE
  8
┌▓È5
 10
-19622.872
 20
-4869.55625
 11
-18995.015
 21
-4869.55625
  0
LINE
  8
┌▓È5
 10
-20325.729
 20
-4209.55625
 11
-19692.872
 21
-4209.55625
  0
LINE
  8
┌▓È5
 10
-19622.872
 20
-4209.55625
 11
-18995.015
 21
-4209.55625
  0
LINE
  8
┌▓È5
 10
-20325.729
 20
-4139.55625
 11
-19692.872
 21
-4139.55625
  0
LINE
  8
┌▓È5
 10
-19622.872
 20
-4139.55625
 11
-18995.015
 21
-4139.55625
  0
LINE
  8
┌▓È5
 10
-20325.729
 20
-3479.55625
 11
-19692.872
 21
-3479.55625
  0
LINE
  8
┌▓È5
 10
-19622.872
 20
-3479.55625
 11
-18995.015
 21
-3479.55625
  0
LINE
  8
┌▓È5
 10
-20325.729
 20
-3409.55625
 11
-19692.872
 21
-3409.55625
  0
LINE
  8
┌▓È5
 10
-19622.872
 20
-3409.55625
 11
-18995.015
 21
-3409.55625
  0
LINE
  8
┌▓È5
 10
-18915.015
 20
-2674.55625
 11
-18915.015
 21
-5674.55625
  0
LINE
  8
┌▓È5
 10
-20231.7865
 20
-11758.58
 11
-21315.12
 21
-11758.58
  0
LINE
  8
┌▓È5
 10
-20231.7865
 20
-11625.24675
 11
-21315.12
 21
-11625.24675
  0
LINE
  8
┌▓È5
 10
-21231.7865
 20
-13958.58
 11
-21231.7865
 21
-11758.58
  0
LINE
  8
┌▓È5
 10
-24871.7865
 20
-13775.24675
 11
-21315.12
 21
-13775.24675
  0
LINE
  8
┌▓È5
 10
-24871.7865
 20
-13691.9135
 11
-21315.12
 21
-13691.9135
  0
LINE
  8
┌▓È5
 10
-22159.2865
 20
-10691.9135
 11
-21315.12
 21
-10691.9135
  0
LINE
  8
┌▓È5
 10
-23063.45325
 20
-10691.9135
 11
-22219.2865
 21
-10691.9135
  0
LINE
  8
┌▓È5
 10
-24871.7865
 20
-10691.9135
 11
-24027.62
 21
-10691.9135
  0
LINE
  8
┌▓È5
 10
-23967.62
 20
-10691.9135
 11
-23123.45325
 21
-10691.9135
  0
LINE
  8
┌▓È5
 10
-24955.12
 20
-9691.9135
 11
-21231.7865
 21
-9691.9135
  0
LINE
  8
┌▓È5
 10
-21231.7865
 20
-9691.9135
 11
-20231.7865
 21
-9691.9135
  0
LINE
  8
┌▓È5
 10
-21231.7865
 20
-11625.24675
 11
-21231.7865
 21
-9691.9135
  0
LINE
  8
┌▓È5
 10
-20231.7865
 20
-13958.58
 11
-20231.7865
 21
-9691.9135
  0
LINE
  8
┌▓È5
 10
-24955.12
 20
-13958.58
 11
-24955.12
 21
-9691.9135
  0
LINE
  8
┌▓È5
 10
-24871.7865
 20
-9758.58
 11
-21315.12
 21
-9758.58
  0
LINE
  8
┌▓È5
 10
-24871.7865
 20
-13958.58
 11
-24871.7865
 21
-9758.58
  0
LINE
  8
┌▓È5
 10
-21315.12
 20
-13958.58
 11
-21315.12
 21
-9758.58
  0
LINE
  8
┌▓È5
 10
-22219.2865
 20
-9758.58
 11
-22219.2865
 21
-13691.9135
  0
LINE
  8
┌▓È5
 10
-22159.2865
 20
-9758.58
 11
-22159.2865
 21
-13691.9135
  0
LINE
  8
┌▓È5
 10
-23063.45325
 20
-9758.58
 11
-23063.45325
 21
-13691.9135
  0
LINE
  8
┌▓È5
 10
-23123.45325
 20
-9758.58
 11
-23123.45325
 21
-13691.9135
  0
LINE
  8
┌▓È5
 10
-23967.62
 20
-9758.58
 11
-23967.62
 21
-13691.9135
  0
LINE
  8
┌▓È5
 10
-24027.62
 20
-9758.58
 11
-24027.62
 21
-13691.9135
  0
LINE
  8
┌▓È5
 10
-22159.2865
 20
-10758.58
 11
-21315.12
 21
-10758.58
  0
LINE
  8
┌▓È5
 10
-23063.45325
 20
-10758.58
 11
-22219.2865
 21
-10758.58
  0
LINE
  8
┌▓È5
 10
-24871.7865
 20
-10758.58
 11
-24027.62
 21
-10758.58
  0
LINE
  8
┌▓È5
 10
-23967.62
 20
-10758.58
 11
-23123.45325
 21
-10758.58
  0
LINE
  8
┌▓È5
 10
-22159.2865
 20
-12691.9135
 11
-21315.12
 21
-12691.9135
  0
LINE
  8
┌▓È5
 10
-23063.45325
 20
-12691.9135
 11
-22219.2865
 21
-12691.9135
  0
LINE
  8
┌▓È5
 10
-24871.7865
 20
-12691.9135
 11
-24027.62
 21
-12691.9135
  0
LINE
  8
┌▓È5
 10
-23967.62
 20
-12691.9135
 11
-23123.45325
 21
-12691.9135
  0
LINE
  8
┌▓È5
 10
-24871.7865
 20
-11758.58
 11
-21315.12
 21
-11758.58
  0
LINE
  8
┌▓È5
 10
-22159.2865
 20
-12758.58
 11
-21315.12
 21
-12758.58
  0
LINE
  8
┌▓È5
 10
-23063.45325
 20
-12758.58
 11
-22219.2865
 21
-12758.58
  0
LINE
  8
┌▓È5
 10
-24871.7865
 20
-12758.58
 11
-24027.62
 21
-12758.58
  0
LINE
  8
┌▓È5
 10
-23967.62
 20
-12758.58
 11
-23123.45325
 21
-12758.58
  0
LINE
  8
┌▓È5
 10
-19299.09425
 20
-13958.58
 11
-19299.09425
 21
-9691.91325
  0
LINE
  8
┌▓È5
 10
-10415.76075
 20
-11758.58
 11
-10415.76075
 21
-11625.24675
  0
LINE
  8
┌▓È5
 10
-10415.76075
 20
-11758.58
 11
-11749.09425
 21
-11758.58
  0
LINE
  8
┌▓È5
 10
-10415.76075
 20
-11625.24675
 11
-11749.09425
 21
-11625.24675
  0
LINE
  8
┌▓È5
 10
-18149.09425
 20
-13775.24675
 11
-11832.4275
 21
-13775.24675
  0
LINE
  8
┌▓È5
 10
-18149.09425
 20
-13691.91325
 11
-11832.4275
 21
-13691.91325
  0
LINE
  8
┌▓È5
 10
-18232.4275
 20
-13958.58
 11
-18232.4275
 21
-9691.91325
  0
LINE
  8
┌▓È5
 10
-18232.4275
 20
-9691.91325
 11
-19299.09425
 21
-9691.91325
  0
LINE
  8
┌▓È5
 10
-11749.09425
 20
-13958.58
 11
-11749.09425
 21
-9691.91325
  0
LINE
  8
┌▓È5
 10
-18232.4275
 20
-9691.91325
 11
-11749.09425
 21
-9691.91325
  0
LINE
  8
┌▓È5
 10
-18149.09425
 20
-10691.91325
 11
-13659.09425
 21
-10691.91325
  0
LINE
  8
┌▓È5
 10
-18149.09425
 20
-10758.58
 11
-13659.09425
 21
-10758.58
  0
LINE
  8
┌▓È5
 10
-17299.09425
 20
-9758.58
 11
-17299.09425
 21
-13691.91325
  0
LINE
  8
┌▓È5
 10
-17239.09425
 20
-9758.58
 11
-17239.09425
 21
-13691.91325
  0
LINE
  8
┌▓È5
 10
-16389.09425
 20
-9758.58
 11
-16389.09425
 21
-13691.91325
  0
LINE
  8
┌▓È5
 10
-16329.09425
 20
-9758.58
 11
-16329.09425
 21
-13691.91325
  0
LINE
  8
┌▓È5
 10
-15479.09425
 20
-9758.58
 11
-15479.09425
 21
-13691.91325
  0
LINE
  8
┌▓È5
 10
-15419.09425
 20
-9758.58
 11
-15419.09425
 21
-13691.91325
  0
LINE
  8
┌▓È5
 10
-14569.09425
 20
-9758.58
 11
-14569.09425
 21
-13691.91325
  0
LINE
  8
┌▓È5
 10
-14509.09425
 20
-9758.58
 11
-14509.09425
 21
-13691.91325
  0
LINE
  8
┌▓È5
 10
-13659.09425
 20
-9758.58
 11
-13659.09425
 21
-13691.91325
  0
LINE
  8
┌▓È5
 10
-13599.09425
 20
-9758.58
 11
-13599.09425
 21
-13691.91325
  0
LINE
  8
┌▓È5
 10
-18149.09425
 20
-12758.58
 11
-13659.09425
 21
-12758.58
  0
LINE
  8
┌▓È5
 10
-18149.09425
 20
-12691.91325
 11
-13659.09425
 21
-12691.91325
  0
LINE
  8
┌▓È5
 10
-11832.4275
 20
-13958.58
 11
-11832.4275
 21
-9758.58
  0
LINE
  8
┌▓È5
 10
-12685.76075
 20
-13691.91325
 11
-12685.76075
 21
-9758.58
  0
LINE
  8
┌▓È5
 10
-12745.76075
 20
-13691.91325
 11
-12745.76075
 21
-9758.58
  0
LINE
  8
┌▓È5
 10
-18149.09425
 20
-11758.58
 11
-13659.09425
 21
-11758.58
  0
LINE
  8
┌▓È5
 10
-13599.09425
 20
-11758.58
 11
-11832.4275
 21
-11758.58
  0
LINE
  8
┌▓È5
 10
-18149.09425
 20
-11691.91325
 11
-13659.09425
 21
-11691.91325
  0
LINE
  8
┌▓È5
 10
-13599.09425
 20
-11691.91325
 11
-11832.4275
 21
-11691.91325
  0
LINE
  8
┌▓È5
 10
-11832.4275
 20
-9758.58
 11
-18149.09425
 21
-9758.58
  0
LINE
  8
┌▓È5
 10
-18149.09425
 20
-13958.58
 11
-18149.09425
 21
-9758.58
  0
LINE
  8
┌▓È5
 10
-24871.7865
 20
-11691.9135
 11
-21315.12
 21
-11691.9135
  0
LINE
  8
┌▓È5
 10
-7399.208
 20
-12691.91325
 11
-7399.208
 21
-12758.58
  0
LINE
  8
┌▓È5
 10
-7399.208
 20
-11691.91325
 11
-7399.208
 21
-11758.58
  0
LINE
  8
┌▓È5
 10
-7399.208
 20
-11691.91325
 11
-6345.8745
 21
-11691.91325
  0
LINE
  8
┌▓È5
 10
-7399.208
 20
-13691.91325
 11
-7399.208
 21
-13758.58
  0
LINE
  8
┌▓È5
 10
-7365.8745
 20
-13958.58
 11
-7365.8745
 21
-13758.58
  0
LINE
  8
┌▓È5
 10
-7315.8745
 20
-13958.58
 11
-7315.8745
 21
-13758.58
  0
LINE
  8
┌▓È5
 10
-7399.208
 20
-11691.91325
 11
-6332.54125
 21
-11691.91325
  0
LINE
  8
┌▓È5
 10
-7399.208
 20
-11758.58
 11
-6332.54125
 21
-11758.58
  0
LINE
  8
┌▓È5
 10
-7399.208
 20
-12691.91325
 11
-6332.54125
 21
-12691.91325
  0
LINE
  8
┌▓È5
 10
-7399.208
 20
-12758.58
 11
-6332.54125
 21
-12758.58
  0
LINE
  8
┌▓È5
 10
-7399.208
 20
-13691.91325
 11
-6319.208
 21
-13691.91325
  0
LINE
  8
┌▓È5
 10
-7399.208
 20
-13758.58
 11
-6319.208
 21
-13758.58
  0
LINE
  8
┌▓È5
 10
-7399.208
 20
-10691.91325
 11
-7399.208
 21
-10758.58
  0
LINE
  8
┌▓È5
 10
-7399.208
 20
-10691.91325
 11
-6345.8745
 21
-10691.91325
  0
LINE
  8
┌▓È5
 10
-7399.208
 20
-10691.91325
 11
-6332.54125
 21
-10691.91325
  0
LINE
  8
┌▓È5
 10
-7399.208
 20
-10758.58
 11
-6332.54125
 21
-10758.58
  0
LINE
  8
┌▓È5
 10
-7399.208
 20
-9691.91325
 11
-7399.208
 21
-9758.58
  0
LINE
  8
┌▓È5
 10
-7399.208
 20
-9691.91325
 11
-6332.54125
 21
-9691.91325
  0
LINE
  8
┌▓È5
 10
-7399.208
 20
-9691.91325
 11
-6319.208
 21
-9691.91325
  0
LINE
  8
┌▓È5
 10
-7399.208
 20
-9758.58
 11
-6319.208
 21
-9758.58
  0
LINE
  8
┌▓È5
 10
3168.0405
 20
-2450.789
 11
3168.0405
 21
-2667.45575
  0
LINE
  8
┌▓È5
 10
3168.0405
 20
-2450.789
 11
1178.0405
 21
-2450.789
  0
LINE
  8
┌▓È5
 10
3168.0405
 20
-2667.45575
 11
1178.0405
 21
-2667.45575
  0
LINE
  8
┌▓È5
 10
1178.0405
 20
-1500.89
 11
1178.0405
 21
-5228.6835
  0
LINE
  8
┌▓È5
 10
1136.374
 20
-1500.89
 11
1136.374
 21
-5228.6835
  0
LINE
  8
┌▓È5
 10
919.70725
 20
-1500.89
 11
919.70725
 21
-5228.6835
  0
LINE
  8
┌▓È5
 10
878.0405
 20
-1500.89
 11
878.0405
 21
-5228.6835
  0
LINE
  8
┌▓È5
 10
7116.66875
 20
-4456.76575
 11
7116.66875
 21
-2006.76575
  0
LINE
  8
┌▓È5
 10
7116.66875
 20
-2006.76575
 11
10500.00225
 21
-2006.76575
  0
LINE
  8
┌▓È5
 10
7158.3355
 20
-4498.4325
 11
7158.3355
 21
-2048.4325
  0
LINE
  8
┌▓È5
 10
7158.3355
 20
-2048.4325
 11
10500.00225
 21
-2048.4325
  0
LINE
  8
┌▓È5
 10
7375.00225
 20
-4715.09925
 11
7375.00225
 21
-2265.09925
  0
LINE
  8
┌▓È5
 10
7375.00225
 20
-2265.09925
 11
10500.00225
 21
-2265.09925
  0
LINE
  8
┌▓È5
 10
7416.66875
 20
-4756.76575
 11
7416.66875
 21
-2306.76575
  0
LINE
  8
┌▓È5
 10
7416.66875
 20
-2306.76575
 11
10500.00225
 21
-2306.76575
  0
LINE
  8
┌▓È5
 10
7116.66875
 20
-4456.76575
 11
6474.082
 21
-4456.76575
  0
LINE
  8
┌▓È5
 10
7158.3355
 20
-4498.4325
 11
6474.082
 21
-4498.4325
  0
LINE
  8
┌▓È5
 10
7375.00225
 20
-4715.09925
 11
6474.082
 21
-4715.09925
  0
LINE
  8
┌▓È5
 10
7416.66875
 20
-4756.76575
 11
6474.082
 21
-4756.76575
  0
LINE
  8
┌▓È5
 10
1209.70725
 20
-11725.24675
 11
3209.70725
 21
-11725.24675
  0
LINE
  8
┌▓È5
 10
1209.70725
 20
-11625.24675
 11
3209.70725
 21
-11625.24675
  0
LINE
  8
┌▓È5
 10
7448.3355
 20
-11725.24675
 11
9966.66875
 21
-11725.24675
  0
LINE
  8
┌▓È5
 10
7448.3355
 20
-11625.24675
 11
9966.66875
 21
-11625.24675
  0
LINE
  8
┌▓È5
 10
17233.8435
 20
-1923.6195
 11
17233.8435
 21
-4506.95275
  0
LINE
  8
┌▓È5
 10
17450.51025
 20
-1923.6195
 11
17450.51025
 21
-4506.95275
  0
LINE
  8
┌▓È5
 10
22567.177
 20
-1923.6195
 11
22567.177
 21
-5722.417
  0
LINE
  8
┌▓È5
 10
22783.8435
 20
-1923.6195
 11
22783.8435
 21
-5722.417
  0
INSERT
  2
*GRP_0123
  8
┌▓È5
 10
0.0
 20
0.0
  0
LINE
  8
┌▓È5
 10
-23044.93
 20
14740.23675
 11
-21378.2635
 21
14740.23675
  0
LINE
  8
┌▓È5
 10
-22961.59675
 20
14740.23675
 11
-22961.59675
 21
14840.23675
  0
LINE
  8
┌▓È5
 10
-21461.59675
 20
14740.23675
 11
-21461.59675
 21
14840.23675
  0
LINE
  8
┌▓È5
 10
-24211.59675
 20
5840.23675
 11
-24211.59675
 21
8506.9035
  0
LINE
  8
┌▓È5
 10
-20211.59675
 20
5840.23675
 11
-20211.59675
 21
8506.9035
  0
LINE
  8
┌▓È5
 10
-24211.59675
 20
8506.9035
 11
-23044.93
 21
8506.9035
  0
LINE
  8
┌▓È5
 10
-21378.2635
 20
8506.9035
 11
-20211.59675
 21
8506.9035
  0
LINE
  8
┌▓È5
 10
-23044.93
 20
8506.9035
 11
-23044.93
 21
14740.23675
  0
LINE
  8
┌▓È5
 10
-21378.2635
 20
8506.9035
 11
-21378.2635
 21
14740.23675
  0
LINE
  8
┌▓È5
 10
4190.32125
 20
14740.23675
 11
4190.32125
 21
14840.23675
  0
LINE
  8
┌▓È5
 10
5690.32125
 20
14740.23675
 11
5690.32125
 21
14840.23675
  0
LINE
  8
┌▓È5
 10
3606.988
 20
14740.23675
 11
6273.65475
 21
14740.23675
  0
LINE
  8
┌▓È5
 10
5773.6545
 20
14656.9035
 11
5773.6545
 21
14740.23675
  0
LINE
  8
┌▓È5
 10
4106.988
 20
14656.9035
 11
4106.988
 21
14740.23675
  0
LINE
  8
┌▓È5
 10
5773.6545
 20
14656.9035
 11
4106.988
 21
14656.9035
  0
LINE
  8
┌▓È5
 10
10940.32125
 20
14740.23675
 11
13606.988
 21
14740.23675
  0
LINE
  8
┌▓È5
 10
11023.6545
 20
14656.9035
 11
13523.65475
 21
14656.9035
  0
LINE
  8
┌▓È5
 10
11023.6545
 20
14740.23675
 11
11023.6545
 21
14840.23675
  0
LINE
  8
┌▓È5
 10
13523.65475
 20
14740.23675
 11
13523.65475
 21
14840.23675
  0
LINE
  8
┌▓È5
 10
-3726.3455
 20
8673.57
 11
-5059.67875
 21
8673.57
  0
LINE
  8
┌▓È5
 10
-5143.012
 20
5840.23675
 11
-5143.012
 21
10506.9035
  0
LINE
  8
┌▓È5
 10
-5059.67875
 20
10506.9035
 11
-6782.74025
 21
10506.9035
  0
LINE
  8
┌▓È5
 10
-5059.67875
 20
12356.9035
 11
-5059.67875
 21
12440.23675
  0
LINE
  8
┌▓È5
 10
-5059.67875
 20
5840.23675
 11
-5059.67875
 21
10590.23675
  0
LINE
  8
┌▓È5
 10
-5059.67875
 20
11431.9035
 11
-5059.67875
 21
11515.23675
  0
ARC
  8
┌▓È5
 10
3073.654333
 20
10373.570083
 40
133.333333
 50
-270.0
 51
-180.0
  0
ARC
  8
┌▓È5
 10
6806.987666
 20
10373.570083
 40
133.333333
 50
0.0
 51
90.0
  0
LINE
  8
┌▓È5
 10
4873.6545
 20
10590.23675
 11
4873.6545
 21
14656.9035
  0
LINE
  8
┌▓È5
 10
5006.98775
 20
10590.23675
 11
5006.98775
 21
14656.9035
  0
LINE
  8
┌▓È5
 10
4106.988
 20
10506.9035
 11
5773.6545
 21
10506.9035
  0
LINE
  8
┌▓È5
 10
3606.988
 20
10506.9035
 11
3606.988
 21
14740.23675
  0
LINE
  8
┌▓È5
 10
6273.65475
 20
10506.9035
 11
6273.65475
 21
14740.23675
  0
LINE
  8
┌▓È5
 10
5773.6545
 20
13490.23675
 11
5006.98775
 21
13490.23675
  0
LINE
  8
┌▓È5
 10
5773.6545
 20
13406.9035
 11
5773.6545
 21
13490.23675
  0
LINE
  8
┌▓È5
 10
5773.6545
 20
13406.9035
 11
5006.98775
 21
13406.9035
  0
LINE
  8
┌▓È5
 10
5773.6545
 20
12440.23675
 11
5006.98775
 21
12440.23675
  0
LINE
  8
┌▓È5
 10
5773.6545
 20
12356.9035
 11
5773.6545
 21
12440.23675
  0
LINE
  8
┌▓È5
 10
5773.6545
 20
12356.9035
 11
5006.98775
 21
12356.9035
  0
LINE
  8
┌▓È5
 10
5773.6545
 20
11515.23675
 11
5006.98775
 21
11515.23675
  0
LINE
  8
┌▓È5
 10
5773.6545
 20
11431.9035
 11
5773.6545
 21
11515.23675
  0
LINE
  8
┌▓È5
 10
5773.6545
 20
11431.9035
 11
5006.98775
 21
11431.9035
  0
LINE
  8
┌▓È5
 10
4873.6545
 20
13490.23675
 11
4106.988
 21
13490.23675
  0
LINE
  8
┌▓È5
 10
4106.988
 20
13406.9035
 11
4106.988
 21
13490.23675
  0
LINE
  8
┌▓È5
 10
4873.6545
 20
13406.9035
 11
4106.988
 21
13406.9035
  0
LINE
  8
┌▓È5
 10
4873.6545
 20
12440.23675
 11
4106.988
 21
12440.23675
  0
LINE
  8
┌▓È5
 10
4106.988
 20
12356.9035
 11
4106.988
 21
12440.23675
  0
LINE
  8
┌▓È5
 10
4873.6545
 20
12356.9035
 11
4106.988
 21
12356.9035
  0
LINE
  8
┌▓È5
 10
4873.6545
 20
11515.23675
 11
4106.988
 21
11515.23675
  0
LINE
  8
┌▓È5
 10
4106.988
 20
11431.9035
 11
4106.988
 21
11515.23675
  0
LINE
  8
┌▓È5
 10
4873.6545
 20
11431.9035
 11
4106.988
 21
11431.9035
  0
LINE
  8
┌▓È5
 10
4106.988
 20
10590.23675
 11
5773.6545
 21
10590.23675
  0
LINE
  8
┌▓È5
 10
4106.988
 20
10590.23675
 11
4106.988
 21
10506.9035
  0
LINE
  8
┌▓È5
 10
5773.6545
 20
10590.23675
 11
5773.6545
 21
10506.9035
  0
LINE
  8
┌▓È5
 10
10273.6545
 20
8673.57
 11
14273.6545
 21
8673.57
  0
ARC
  8
┌▓È5
 10
10406.987666
 20
10373.570083
 40
133.333333
 50
-270.0
 51
-180.0
  0
ARC
  8
┌▓È5
 10
14140.320999
 20
10373.570083
 40
133.333333
 50
0.0
 51
90.0
  0
LINE
  8
┌▓È5
 10
10940.32125
 20
10506.9035
 11
10940.32125
 21
14740.23675
  0
LINE
  8
┌▓È5
 10
10273.6545
 20
10373.57025
 11
10273.6545
 21
5840.23675
  0
LINE
  8
┌▓È5
 10
14273.6545
 20
10373.57025
 11
14273.6545
 21
5840.23675
  0
LINE
  8
┌▓È5
 10
10406.98775
 20
10506.9035
 11
14140.32125
 21
10506.9035
  0
LINE
  8
┌▓È5
 10
11023.6545
 20
10590.23675
 11
13523.65475
 21
10590.23675
  0
LINE
  8
┌▓È5
 10
11023.6545
 20
13490.23675
 11
13523.65475
 21
13490.23675
  0
LINE
  8
┌▓È5
 10
11023.6545
 20
13406.9035
 11
13523.65475
 21
13406.9035
  0
LINE
  8
┌▓È5
 10
11023.6545
 20
11515.23675
 11
13523.65475
 21
11515.23675
  0
LINE
  8
┌▓È5
 10
11023.6545
 20
11431.9035
 11
13523.65475
 21
11431.9035
  0
LINE
  8
┌▓È5
 10
11023.6545
 20
10590.23675
 11
11023.6545
 21
12356.9035
  0
LINE
  8
┌▓È5
 10
13523.65475
 20
10590.23675
 11
13523.65475
 21
12356.9035
  0
LINE
  8
┌▓È5
 10
13606.988
 20
10506.9035
 11
13606.988
 21
14740.23675
  0
LINE
  8
┌▓È5
 10
13523.65475
 20
14656.9035
 11
13523.65475
 21
12440.23675
  0
LINE
  8
┌▓È5
 10
11023.6545
 20
14656.9035
 11
11023.6545
 21
12440.23675
  0
LINE
  8
┌▓È5
 10
13523.65475
 20
12440.23675
 11
11023.6545
 21
12440.23675
  0
LINE
  8
┌▓È5
 10
10940.32125
 20
12356.9035
 11
13606.988
 21
12356.9035
  0
LINE
  8
┌▓È5
 10
-4993.01225
 20
8523.57
 11
-4909.679
 21
8523.57
  0
LINE
  8
┌▓È5
 10
-3726.3455
 20
5840.23675
 11
-3726.3455
 21
8523.57
  0
LINE
  8
┌▓È5
 10
-3726.3455
 20
8540.23675
 11
-3726.3455
 21
8673.57
  0
LINE
  8
┌▓È5
 10
-3726.3455
 20
8540.23675
 11
-5059.67875
 21
8540.23675
  0
LINE
  8
┌▓È5
 10
-3809.67875
 20
8523.57
 11
-3726.3455
 21
8523.57
  0
LINE
  8
┌▓È5
 10
-3726.3455
 20
8206.90325
 11
-5059.67875
 21
8206.90325
  0
LINE
  8
┌▓È5
 10
-4909.679
 20
8256.90325
 11
-3809.67875
 21
8256.90325
  0
LINE
  8
┌▓È5
 10
-3809.67875
 20
8523.57
 11
-3809.67875
 21
8206.90325
  0
LINE
  8
┌▓È5
 10
-4993.01225
 20
8523.57
 11
-4993.01225
 21
8206.90325
  0
LINE
  8
┌▓È5
 10
-4909.679
 20
8523.57
 11
-4909.679
 21
8206.90325
  0
LINE
  8
┌▓È5
 10
5673.6545
 20
8356.90325
 11
5756.98775
 21
8356.90325
  0
LINE
  8
┌▓È5
 10
6940.32125
 20
5840.23675
 11
6940.32125
 21
8356.90325
  0
LINE
  8
┌▓È5
 10
6856.988
 20
8356.90325
 11
6940.32125
 21
8356.90325
  0
LINE
  8
┌▓È5
 10
4206.988
 20
8356.90325
 11
4123.65475
 21
8356.90325
  0
LINE
  8
┌▓È5
 10
2940.32125
 20
5840.23675
 11
2940.32125
 21
8356.90325
  0
LINE
  8
┌▓È5
 10
3023.6545
 20
8356.90325
 11
2940.32125
 21
8356.90325
  0
LINE
  8
┌▓È5
 10
5756.98775
 20
8090.2365
 11
6856.988
 21
8090.2365
  0
LINE
  8
┌▓È5
 10
6856.988
 20
8356.90325
 11
6856.988
 21
8040.2365
  0
LINE
  8
┌▓È5
 10
5673.6545
 20
8356.90325
 11
5673.6545
 21
8040.2365
  0
LINE
  8
┌▓È5
 10
5756.98775
 20
8356.90325
 11
5756.98775
 21
8040.2365
  0
LINE
  8
┌▓È5
 10
4123.65475
 20
8090.2365
 11
3023.6545
 21
8090.2365
  0
LINE
  8
┌▓È5
 10
3023.6545
 20
8356.90325
 11
3023.6545
 21
8040.2365
  0
LINE
  8
┌▓È5
 10
4206.988
 20
8356.90325
 11
4206.988
 21
8040.2365
  0
LINE
  8
┌▓È5
 10
4123.65475
 20
8356.90325
 11
4123.65475
 21
8040.2365
  0
LINE
  8
┌▓È5
 10
2940.32125
 20
8373.57
 11
2940.32125
 21
10373.57025
  0
LINE
  8
┌▓È5
 10
6940.32125
 20
8373.57
 11
6940.32125
 21
10373.57025
  0
LINE
  8
┌▓È5
 10
10273.6545
 20
8540.23675
 11
14273.6545
 21
8540.23675
  0
LINE
  8
┌▓È5
 10
10356.98775
 20
5840.23675
 11
10356.98775
 21
8540.23675
  0
LINE
  8
┌▓È5
 10
14190.32125
 20
5840.23675
 11
14190.32125
 21
8540.23675
  0
LINE
  8
┌▓È5
 10
10356.98775
 20
8206.90325
 11
14190.32125
 21
8206.90325
  0
LINE
  8
┌▓È5
 10
12273.6545
 20
8540.23675
 11
12273.6545
 21
8206.90325
  0
LINE
  8
┌▓È5
 10
-9840.8845
 20
14740.23675
 11
-9840.8845
 21
14840.23675
  0
LINE
  8
┌▓È5
 10
-10924.218
 20
10506.9035
 11
-10924.218
 21
14740.23675
  0
LINE
  8
┌▓È5
 10
-11007.55125
 20
10590.23675
 11
-11007.55125
 21
14656.9035
  0
LINE
  8
┌▓È5
 10
-9757.55125
 20
13406.9035
 11
-9757.55125
 21
14740.23675
  0
LINE
  8
┌▓È5
 10
-10340.8845
 20
5840.23675
 11
-10340.8845
 21
10506.9035
  0
LINE
  8
┌▓È5
 10
-15257.55125
 20
5840.23675
 11
-15257.55125
 21
14740.23675
  0
LINE
  8
┌▓È5
 10
-15174.218
 20
5840.23675
 11
-15174.218
 21
14656.9035
  0
LINE
  8
┌▓È5
 10
-11007.55125
 20
14656.9035
 11
-15174.218
 21
14656.9035
  0
LINE
  8
┌▓È5
 10
-9757.55125
 20
14740.23675
 11
-15257.55125
 21
14740.23675
  0
LINE
  8
┌▓È5
 10
-15174.218
 20
14740.23675
 11
-15174.218
 21
14840.23675
  0
LINE
  8
┌▓È5
 10
-15174.218
 20
10590.23675
 11
-11007.55125
 21
10590.23675
  0
LINE
  8
┌▓È5
 10
-15174.218
 20
11515.23675
 11
-11007.55125
 21
11515.23675
  0
LINE
  8
┌▓È5
 10
-15174.218
 20
11431.9035
 11
-11007.55125
 21
11431.9035
  0
LINE
  8
┌▓È5
 10
-15174.218
 20
12440.23675
 11
-11007.55125
 21
12440.23675
  0
LINE
  8
┌▓È5
 10
-15174.218
 20
12356.9035
 11
-11007.55125
 21
12356.9035
  0
LINE
  8
┌▓È5
 10
-11007.55125
 20
13406.9035
 11
-15174.218
 21
13406.9035
  0
LINE
  8
┌▓È5
 10
-11007.55125
 20
13490.23675
 11
-15174.218
 21
13490.23675
  0
LINE
  8
┌▓È5
 10
-10340.8845
 20
8506.9035
 11
-15174.218
 21
8506.9035
  0
LINE
  8
┌▓È5
 10
-10257.55125
 20
10506.9035
 11
-15174.218
 21
10506.9035
  0
LINE
  8
┌▓È5
 10
-10340.8845
 20
8373.57025
 11
-15174.218
 21
8373.57025
  0
LINE
  8
┌▓È5
 10
-10340.8845
 20
8040.23675
 11
-15174.218
 21
8040.23675
  0
LINE
  8
┌▓È5
 10
-13132.5515
 20
11431.9035
 11
-13132.5515
 21
10590.23675
  0
LINE
  8
┌▓È5
 10
-13049.21825
 20
11431.9035
 11
-13049.21825
 21
10590.23675
  0
LINE
  8
┌▓È5
 10
-13132.5515
 20
12356.9035
 11
-13132.5515
 21
11515.23675
  0
LINE
  8
┌▓È5
 10
-13049.21825
 20
12356.9035
 11
-13049.21825
 21
11515.23675
  0
LINE
  8
┌▓È5
 10
-13132.5515
 20
14656.9035
 11
-13132.5515
 21
13490.23675
  0
LINE
  8
┌▓È5
 10
-13132.5515
 20
13406.9035
 11
-13132.5515
 21
12440.23675
  0
LINE
  8
┌▓È5
 10
-13049.21825
 20
14656.9035
 11
-13049.21825
 21
13490.23675
  0
LINE
  8
┌▓È5
 10
-13049.21825
 20
13406.9035
 11
-13049.21825
 21
12440.23675
  0
LINE
  8
┌▓È5
 10
-12757.55125
 20
8040.23675
 11
-12757.55125
 21
8373.57025
  0
LINE
  8
┌▓È5
 10
-8924.218
 20
5840.23675
 11
-8924.218
 21
8673.57
  0
LINE
  8
┌▓È5
 10
-8924.218
 20
8673.57
 11
-10257.55125
 21
8673.57
  0
LINE
  8
┌▓È5
 10
-8924.218
 20
8540.23675
 11
-10257.55125
 21
8540.23675
  0
LINE
  8
┌▓È5
 10
-6782.74025
 20
14656.9035
 11
-5809.67875
 21
14656.9035
  0
LINE
  8
┌▓È5
 10
-5726.3455
 20
12440.23675
 11
-5059.67875
 21
12440.23675
  0
LINE
  8
┌▓È5
 10
-5726.3455
 20
10506.9035
 11
-5726.3455
 21
14740.23675
  0
LINE
  8
┌▓È5
 10
-5809.67875
 20
10590.23675
 11
-5809.67875
 21
14656.9035
  0
LINE
  8
┌▓È5
 10
-6782.74025
 20
10590.23675
 11
-5809.67875
 21
10590.23675
  0
LINE
  8
┌▓È5
 10
-6782.74025
 20
12440.23675
 11
-5809.67875
 21
12440.23675
  0
LINE
  8
┌▓È5
 10
-6782.74025
 20
12356.9035
 11
-5809.67875
 21
12356.9035
  0
LINE
  8
┌▓È5
 10
-5809.67875
 20
13406.9035
 11
-6782.74025
 21
13406.9035
  0
LINE
  8
┌▓È5
 10
-5809.67875
 20
13490.23675
 11
-6782.74025
 21
13490.23675
  0
LINE
  8
┌▓È5
 10
-6782.74025
 20
11515.23675
 11
-5809.67875
 21
11515.23675
  0
LINE
  8
┌▓È5
 10
-6782.74025
 20
11431.9035
 11
-5809.67875
 21
11431.9035
  0
LINE
  8
┌▓È5
 10
-5726.3455
 20
12356.9035
 11
-5059.67875
 21
12356.9035
  0
LINE
  8
┌▓È5
 10
-5726.3455
 20
11515.23675
 11
-5059.67875
 21
11515.23675
  0
LINE
  8
┌▓È5
 10
-5059.67875
 20
10590.23675
 11
-5726.3455
 21
10590.23675
  0
LINE
  8
┌▓È5
 10
-5726.3455
 20
11431.9035
 11
-5059.67875
 21
11431.9035
  0
LINE
  8
┌▓È5
 10
-6782.74025
 20
14740.23675
 11
-4559.67875
 21
14740.23675
  0
LINE
  8
┌▓È5
 10
-4559.67875
 20
14656.9035
 11
-4559.67875
 21
14740.23675
  0
LINE
  8
┌▓È5
 10
-4643.012
 20
14740.23675
 11
-4643.012
 21
14840.23675
  0
LINE
  8
┌▓È5
 10
-4726.34525
 20
14740.23675
 11
-4726.34525
 21
14840.23675
  0
LINE
  8
┌▓È5
 10
-4559.67875
 20
13490.23675
 11
-4559.67875
 21
13406.9035
  0
LINE
  8
┌▓È5
 10
-4559.67875
 20
14656.9035
 11
-5726.3455
 21
14656.9035
  0
LINE
  8
┌▓È5
 10
-4559.67875
 20
13406.9035
 11
-5726.3455
 21
13406.9035
  0
LINE
  8
┌▓È5
 10
-4559.67875
 20
13490.23675
 11
-5726.3455
 21
13490.23675
  0
LINE
  8
┌▓È5
 10
-9757.55125
 20
13406.9035
 11
-10257.55125
 21
12440.23675
  0
LINE
  8
┌▓È5
 10
-10257.55125
 20
5840.23675
 11
-10257.55125
 21
12440.23675
  0
LINE
  8
┌▓È5
 10
17758.84375
 20
-11291.9135
 11
22525.51025
 21
-11291.9135
  0
LINE
  8
┌▓È5
 10
17758.84375
 20
-11458.58
 11
22525.51025
 21
-11458.58
  0
LINE
  8
┌▓È5
 10
17758.84375
 20
-13958.58
 11
17758.84375
 21
-11291.9135
  0
LINE
  8
┌▓È5
 10
22525.51025
 20
-4456.95275
 11
17625.51025
 21
-4456.95275
  0
LINE
  8
┌▓È5
 10
17625.51025
 20
-2540.286
 11
17625.51025
 21
-4456.95275
  0
LINE
  8
┌▓È5
 10
-10340.8845
 20
9173.57025
 11
-15174.218
 21
9173.57025
  0
LINE
  8
┌▓È5
 10
-5143.012
 20
9173.57025
 11
-6782.74025
 21
9173.57025
  0
LINE
  8
┌▓È5
 10
4606.988
 20
5840.23675
 11
4606.988
 21
9173.57
  0
LINE
  8
┌▓È5
 10
4606.988
 20
9173.57
 11
5273.6545
 21
9173.57
  0
LINE
  8
┌▓È5
 10
5273.6545
 20
5840.23675
 11
5273.6545
 21
9173.57
  0
LINE
  8
┌▓È5
 10
4690.32125
 20
9090.23675
 11
4690.32125
 21
5840.23675
  0
LINE
  8
┌▓È5
 10
4690.32125
 20
9090.23675
 11
5190.32125
 21
9090.23675
  0
LINE
  8
┌▓È5
 10
5190.32125
 20
9090.23675
 11
5190.32125
 21
5840.23675
  0
LINE
  8
┌▓È5
 10
2940.32125
 20
8506.90325
 11
4606.988
 21
8506.90325
  0
LINE
  8
┌▓È5
 10
5273.6545
 20
8506.90325
 11
6940.32125
 21
8506.90325
  0
LINE
  8
┌▓È5
 10
2940.32125
 20
8373.57
 11
4606.988
 21
8373.57
  0
LINE
  8
┌▓È5
 10
5273.6545
 20
8373.57
 11
6940.32125
 21
8373.57
  0
LINE
  8
┌▓È5
 10
2940.32125
 20
8040.2365
 11
4606.988
 21
8040.2365
  0
LINE
  8
┌▓È5
 10
6940.32125
 20
8040.2365
 11
5273.6545
 21
8040.2365
  0
LINE
  8
┌▓È5
 10
4873.6545
 20
10506.9035
 11
4873.6545
 21
9173.57
  0
LINE
  8
┌▓È5
 10
5006.98775
 20
10506.9035
 11
5006.98775
 21
9173.57
  0
LINE
  8
┌▓È5
 10
3073.6545
 20
10506.9035
 11
4106.988
 21
10506.9035
  0
LINE
  8
┌▓È5
 10
6806.988
 20
10506.9035
 11
5773.6545
 21
10506.9035
  0
LINE
  8
┌▓È5
 10
-5143.012
 20
9090.237
 11
-6782.74025
 21
9090.237
  0
LINE
  8
┌▓È6
 10
-19208.7965
 20
30681.8575
 11
-19208.7965
 21
28154.44525
  0
LINE
  8
┌▓È6
 10
-19375.463
 20
27237.77875
 11
-19208.7965
 21
28154.44525
  0
LINE
  8
┌▓È6
 10
-19375.463
 20
26398.524
 11
-19375.463
 21
27237.77875
  0
LINE
  8
┌▓È6
 10
-10504.41425
 20
27031.858
 11
-10337.74775
 21
27948.5245
  0
LINE
  8
┌▓È6
 10
-10504.41425
 20
26198.52475
 11
-10504.41425
 21
27031.858
  0
LINE
  8
┌▓È6
 10
-10337.74775
 20
30681.8575
 11
-10337.74775
 21
27948.5245
  0
LINE
  8
┌▓È6
 10
6231.957
 20
24357.14125
 11
6398.6235
 21
25273.80825
  0
LINE
  8
┌▓È6
 10
6231.957
 20
23440.475
 11
6231.957
 21
24357.14125
  0
LINE
  8
┌▓È6
 10
6398.6235
 20
27757.14175
 11
6398.6235
 21
25273.80825
  0
LINE
  8
┌▓È6
 10
17042.08125
 20
29041.96725
 11
17042.08125
 21
26514.555
  0
LINE
  8
┌▓È6
 10
16875.41475
 20
25597.8885
 11
17042.08125
 21
26514.555
  0
LINE
  8
┌▓È6
 10
16875.41475
 20
24758.63375
 11
16875.41475
 21
25597.8885
  0
POLYLINE
  8
┌▓È6
  6
DOT
 66
     1
 70
     1
  0
VERTEX
  8
┌▓È6
 10
3201.25975
 20
-2709.1225
  0
VERTEX
  8
┌▓È6
 10
1209.70725
 20
-2709.1225
  0
VERTEX
  8
┌▓È6
 10
1209.70725
 20
-3896.504
  0
VERTEX
  8
┌▓È6
 10
3201.25975
 20
-3896.504
  0
SEQEND
  0
LINE
  8
┌▓È6
 10
3209.70725
 20
-4375.789
 11
1209.70725
 21
-4375.789
  0
LINE
  8
┌▓È6
 10
3209.70725
 20
-2709.1225
 11
3209.70725
 21
-4375.789
  0
LINE
  8
┌▓È6
 10
7448.3355
 20
-4788.4325
 11
9966.66875
 21
-4788.4325
  0
POLYLINE
  8
┌▓È6
  6
DOT
 66
     1
 70
     1
  0
VERTEX
  8
┌▓È6
 10
9676.44125
 20
-2873.05175
  0
VERTEX
  8
┌▓È6
 10
7684.88875
 20
-2873.05175
  0
VERTEX
  8
┌▓È6
 10
7684.88875
 20
-4060.43325
  0
VERTEX
  8
┌▓È6
 10
9676.44125
 20
-4060.43325
  0
SEQEND
  0
LINE
  8
┌▓È6
  6
DOT
 10
17192.177
 20
-4506.95275
 11
15658.15025
 21
-4506.95275
  0
LINE
  8
┌▓È6
 10
18508.84375
 20
-9958.58
 11
22175.51025
 21
-9958.58
  0
LINE
  8
┌▓È6
 10
18425.51025
 20
-10041.9135
 11
22258.84375
 21
-10041.9135
  0
LINE
  8
┌▓È6
 10
22008.84375
 20
-9791.9135
 11
20425.51025
 21
-9791.9135
  0
LINE
  8
┌▓È6
 10
20258.84375
 20
-9791.9135
 11
18675.51025
 21
-9791.9135
  0
LINE
  8
┌▓È6
 10
18675.51025
 20
-9791.9135
 11
18675.51025
 21
-8413.319
  0
LINE
  8
┌▓È6
 10
18508.84375
 20
-9958.58
 11
18508.84375
 21
-8413.319
  0
LINE
  8
┌▓È6
 10
18425.51025
 20
-10041.9135
 11
18425.51025
 21
-8413.319
  0
LINE
  8
┌▓È6
 10
22008.84375
 20
-9791.9135
 11
22008.84375
 21
-8413.319
  0
LINE
  8
┌▓È6
 10
22175.51025
 20
-9958.58
 11
22175.51025
 21
-8413.319
  0
LINE
  8
┌▓È6
 10
22258.84375
 20
-10041.9135
 11
22258.84375
 21
-8413.319
  0
LINE
  8
┌▓È6
 10
20258.84375
 20
-9958.58
 11
20258.84375
 21
-8413.319
  0
LINE
  8
┌▓È6
 10
20425.51025
 20
-9791.9135
 11
20425.51025
 21
-8413.319
  0
LINE
  8
┌▓È6
 10
-5059.67875
 20
12356.9035
 11
-5059.67875
 21
11515.23675
  0
LINE
  8
┌▓È6
 10
-5059.67875
 20
11431.9035
 11
-5059.67875
 21
10590.23675
  0
LINE
  8
┌▓È6
 10
4106.988
 20
14656.9035
 11
4106.988
 21
13490.23675
  0
LINE
  8
┌▓È6
 10
4106.988
 20
13406.9035
 11
4106.988
 21
12440.23675
  0
LINE
  8
┌▓È6
 10
4106.988
 20
12356.9035
 11
4106.988
 21
11515.23675
  0
LINE
  8
┌▓È6
 10
4106.988
 20
11431.9035
 11
4106.988
 21
10590.23675
  0
LINE
  8
┌▓È6
 10
5773.6545
 20
14656.9035
 11
5773.6545
 21
13490.23675
  0
LINE
  8
┌▓È6
 10
5773.6545
 20
13406.9035
 11
5773.6545
 21
12440.23675
  0
LINE
  8
┌▓È6
 10
5773.6545
 20
12356.9035
 11
5773.6545
 21
11515.23675
  0
LINE
  8
┌▓È6
 10
5773.6545
 20
11431.9035
 11
5773.6545
 21
10590.23675
  0
LINE
  8
┌▓È6
 10
-3726.3455
 20
8540.23675
 11
-3726.3455
 21
8523.57
  0
LINE
  8
┌▓È6
 10
-3809.67875
 20
8523.57
 11
-4909.679
 21
8523.57
  0
LINE
  8
┌▓È6
 10
6940.32125
 20
8373.57
 11
6940.32125
 21
8356.90325
  0
LINE
  8
┌▓È6
 10
6856.988
 20
8356.90325
 11
5756.98775
 21
8356.90325
  0
LINE
  8
┌▓È6
 10
2940.32125
 20
8373.57
 11
2940.32125
 21
8356.90325
  0
LINE
  8
┌▓È6
 10
3023.6545
 20
8356.90325
 11
4123.65475
 21
8356.90325
  0
LINE
  8
┌▓È6
 10
-4559.67875
 20
14656.9035
 11
-4559.67875
 21
13490.23675
  0
LINE
  8
┌▓È6
 10
-5059.67875
 20
12440.23675
 11
-4559.67875
 21
13406.9035
  0
TEXT
  7
TextStyle03
  8
òÂÄÜ
 10
18300.0
 20
-16625.0
  1
É}û╩û╝
 40
250.0
 72
     5
 11
19110.0
 21
-16625.0
  0
TEXT
  7
TextStyle03
  8
òÂÄÜ
 10
25050.0
 20
-17825.0
  1
çé
 40
250.0
 72
     5
 11
25300.0
 21
-17825.0
  0
TEXT
  7
TextStyle03
  8
òÂÄÜ
 10
25050.0
 20
-16625.0
  1
ÅkÄ┌
 40
250.0
 72
     5
 11
25580.0
 21
-16625.0
  0
TEXT
  7
TextStyle03
  8
òÂÄÜ
 10
25995.0
 20
-17175.0
  1
1/30
 40
300.0
 72
     5
 11
26685.0
 21
-17175.0
  0
TEXT
  7
TextStyle03
  8
òÂÄÜ
 10
19715.0
 20
-17125.0
  1
ëãï´Å┌ìÎÉ}üiéQüj
 40
400.0
 72
     5
 11
23475.0
 21
-17125.0
  0
TEXT
  7
TextStyle03
  8
òÂÄÜ
 10
-21185.0
 20
24710.0
  1
Æ¦éÞÆIïñÆ╩Æfû╩
 40
300.0
 72
     5
 11
-18860.0
 21
24710.0
  0
TEXT
  7
TextStyle03
  8
òÂÄÜ
 10
-12322.5
 20
24710.0
  1
Æ¦éÞÆIïñÆ╩Æfû╩
 40
300.0
 72
     5
 11
-9997.5
 21
24710.0
  0
TEXT
  7
TextStyle03
  8
òÂÄÜ
 10
5585.0
 20
21787.5
  1
Æ¦éÞÆIïñÆ╩Æfû╩
 40
300.0
 72
     5
 11
7910.0
 21
21787.5
  0
TEXT
  7
TextStyle03
  8
òÂÄÜ
 10
19220.0
 20
21262.5
  1
écü|éT
 40
300.0
 72
     5
 11
20195.0
 21
21262.5
  0
TEXT
  7
TextStyle03
  8
òÂÄÜ
 10
25665.0
 20
-18525.0
  1
éOéRéX
 40
400.0
 72
     5
 11
27025.0
 21
-18525.0
  0
TEXT
  7
TextStyle03
  8
òÂÄÜ
 10
-23317.5
 20
18025.0
  1
ïZìHÄ║ü@ü@Æåëøìýïãæõ
 40
400.0
 72
     5
 11
-18597.5
 21
18025.0
  0
TEXT
  7
TextStyle03
  8
òÂÄÜ
 10
-27100.0
 20
18025.0
  1
éfü|éV
 40
400.0
 72
     5
 11
-25740.0
 21
18025.0
  0
TEXT
  7
TextStyle03
  8
òÂÄÜ
 10
24480.0
 20
18025.0
  1
érüüéPü^éRéO
 40
400.0
 72
     5
 11
27280.0
 21
18025.0
  0
TEXT
  7
TextStyle03
  8
òÂÄÜ
 10
-10787.5
 20
-11137.5
  1
TELæõ
 40
300.0
 72
     5
 11
-9981.25
 21
-11137.5
  0
TEXT
  7
TextStyle03
  8
òÂÄÜ
 10
-5717.5
 20
-10855.0
  1
ùáö┬üFâ|âèìçö┬ î·4
 40
300.0
 72
     5
 11
-2698.75
 21
-10855.0
  0
TEXT
  7
TextStyle03
  8
òÂÄÜ
 10
-4627.5
 20
817.5
  1
érüüéPü^éRéO
 40
400.0
 72
     5
 11
-1827.5
 21
817.5
  0
TEXT
  7
TextStyle03
  8
òÂÄÜ
 10
-23317.5
 20
817.5
  1
ë║æ½ô³ü@î║èÍü@Æ╩ùpî¹
 40
400.0
 72
     5
 11
-18597.5
 21
817.5
  0
TEXT
  7
TextStyle03
  8
òÂÄÜ
 10
1647.5
 20
-3580.0
  1
Ä®î╗ï@
 40
300.0
 72
     5
 11
2622.5
 21
-3580.0
  0
TEXT
  7
TextStyle03
  8
òÂÄÜ
 10
8225.0
 20
-3625.0
  1
Ä®î╗ï@
 40
300.0
 72
     5
 11
9200.0
 21
-3625.0
  0
TEXT
  7
TextStyle03
  8
òÂÄÜ
 10
2922.5
 20
817.5
  1
Ä®î╗ï@æõ
 40
400.0
 72
     5
 11
4762.5
 21
817.5
  0
TEXT
  7
TextStyle03
  8
òÂÄÜ
 10
9745.0
 20
817.5
  1
érüüéPü^éRéO
 40
400.0
 72
     5
 11
12545.0
 21
817.5
  0
TEXT
  7
TextStyle03
  8
òÂÄÜ
 10
3947.5
 20
-9727.5
  1
Ä®î╗ï@æõ
 40
300.0
 72
     5
 11
5327.5
 21
-9727.5
  0
TEXT
  7
TextStyle03
  8
òÂÄÜ
 10
4010.0
 20
-10127.5
  1
ÆIö┬ t20 
 40
300.0
 72
     5
 11
5600.0
 21
-10127.5
  0
TEXT
  7
TextStyle03
  8
òÂÄÜ
 10
4010.0
 20
-10487.5
  1
╬▀Ïìçö┬╠Î»╝¡
 40
300.0
 72
     5
 11
6140.0
 21
-10487.5
  0
TEXT
  7
TextStyle03
  8
òÂÄÜ
 10
24480.0
 20
817.5
  1
érüüéPü^éRéO
 40
400.0
 72
     5
 11
27280.0
 21
817.5
  0
TEXT
  7
TextStyle03
  8
òÂÄÜ
 10
17295.0
 20
817.5
  1
ìýïãæõü@â|ü[âZâîâôÄ║
 40
400.0
 72
     5
 11
22015.0
 21
817.5
  0
TEXT
  7
TextStyle03
  8
òÂÄÜ
 10
-27580.0
 20
817.5
  1
éjü|éPüEéQ
 40
400.0
 72
     5
 11
-25260.0
 21
817.5
  0
TEXT
  7
TextStyle03
  8
òÂÄÜ
 10
-1340.0
 20
817.5
  1
éjü|éRüEéS
 40
400.0
 72
     5
 11
980.0
 21
817.5
  0
TEXT
  7
TextStyle03
  8
òÂÄÜ
 10
13512.5
 20
817.5
  1
éjü|éT
 40
400.0
 72
     5
 11
14872.5
 21
817.5
  0
TEXT
  7
TextStyle03
  8
òÂÄÜ
 10
-19905.0
 20
-14960.0
  1
éjü|éP
 40
300.0
 72
     5
 11
-18930.0
 21
-14960.0
  0
TEXT
  7
TextStyle03
  8
òÂÄÜ
 10
-22160.0
 20
-6545.0
  1
éjü|éQ
 40
300.0
 72
     5
 11
-21185.0
 21
-6545.0
  0
TEXT
  7
TextStyle03
  8
òÂÄÜ
 10
1737.5
 20
-14747.5
  1
éjü|éR
 40
300.0
 72
     5
 11
2712.5
 21
-14747.5
  0
TEXT
  7
TextStyle03
  8
òÂÄÜ
 10
8312.5
 20
-14730.0
  1
éjü|éS
 40
300.0
 72
     5
 11
9287.5
 21
-14730.0
  0
TEXT
  7
TextStyle03
  8
òÂÄÜ
 10
19715.0
 20
-14705.0
  1
éjü|éT
 40
300.0
 72
     5
 11
20690.0
 21
-14705.0
  0
TEXT
  7
TextStyle03
  8
òÂÄÜ
 10
-24687.5
 20
2617.5
  1
Æåëøìýïãæõ(┌░¢Ìæõ)æñû╩
 40
400.0
 72
     5
 11
-19787.5
 21
2617.5
  0
POLYLINE
  8
òÂÄÜ
 66
     1
  0
VERTEX
  8
òÂÄÜ
 10
12711.63125
 20
5560.6265
  0
VERTEX
  8
òÂÄÜ
 10
12711.63125
 20
5227.293
  0
VERTEX
  8
òÂÄÜ
 10
13044.9645
 20
5227.293
  0
SEQEND
  0
TEXT
  7
TextStyle03
  8
òÂÄÜ
 10
13155.0
 20
15272.5
  1
éa
 40
300.0
 72
     5
 11
13455.0
 21
15272.5
  0
TEXT
  7
TextStyle03
  8
òÂÄÜ
 10
13155.0
 20
5107.5
  1
éa
 40
300.0
 72
     5
 11
13455.0
 21
5107.5
  0
TEXT
  7
TextStyle03
  8
òÂÄÜ
 10
4252.5
 20
2617.5
  1
é`Æfû╩
 40
400.0
 72
     5
 11
5552.5
 21
2617.5
  0
TEXT
  7
TextStyle03
  8
òÂÄÜ
 10
-12532.5
 20
2617.5
  1
É│û╩
 40
400.0
 72
     5
 11
-11682.5
 21
2617.5
  0
TEXT
  7
TextStyle03
  8
òÂÄÜ
 10
-5955.0
 20
2617.5
  1
éaÆfû╩
 40
400.0
 72
     5
 11
-4655.0
 21
2617.5
  0
TEXT
  7
TextStyle03
  8
òÂÄÜ
 10
10702.5
 20
2617.5
  1
æñû╩(ìýïãæõæñ)
 40
400.0
 72
     5
 11
13827.5
 21
2617.5
  0
POLYLINE
  8
òÂÄÜ
 66
     1
  0
VERTEX
  8
òÂÄÜ
 10
12711.63125
 20
5560.6265
  0
VERTEX
  8
òÂÄÜ
 10
12711.63125
 20
15453.1805
  0
VERTEX
  8
òÂÄÜ
 10
13044.9645
 20
15453.1805
  0
SEQEND
  0
POLYLINE
  8
òÂÄÜ
 66
     1
  0
VERTEX
  8
òÂÄÜ
 10
-11804.873
 20
15119.847
  0
VERTEX
  8
òÂÄÜ
 10
-11804.873
 20
15453.1805
  0
VERTEX
  8
òÂÄÜ
 10
-11471.53975
 20
15453.1805
  0
SEQEND
  0
TEXT
  7
TextStyle03
  8
òÂÄÜ
 10
-11360.0
 20
15272.5
  1
é`
 40
300.0
 72
     5
 11
-11060.0
 21
15272.5
  0
TEXT
  7
TextStyle03
  8
òÂÄÜ
 10
-11360.0
 20
5107.5
  1
é`
 40
300.0
 72
     5
 11
-11060.0
 21
5107.5
  0
POLYLINE
  8
òÂÄÜ
 66
     1
  0
VERTEX
  8
òÂÄÜ
 10
-11804.873
 20
15119.847
  0
VERTEX
  8
òÂÄÜ
 10
-11804.873
 20
5227.293
  0
VERTEX
  8
òÂÄÜ
 10
-11471.53975
 20
5227.293
  0
SEQEND
  0
TEXT
  7
TextStyle03
  8
òÂÄÜ
 10
-27105.0
 20
-16930.0
  1
ô┴ïLê╚èOé╠Ädùlé═éjéiÉ╗òié­ÄQÅãéÀéÚüBüiâTâôâEâFü[âuûÏÉ╗âLââârâlâbâgéféréeüAéféjéeÆ÷ôxüj
 40
300.0
 72
     5
 11
-12630.0
 21
-16930.0
  0
TEXT
  7
TextStyle03
  8
òÂÄÜ
 10
12142.5
 20
2002.5
  1
î®éªè|é®éÞòöé═âüâëâ~âôë╗Å¤ö┼éãéÀéÚüBüiôVö┬üEæñö┬üEë£ö┬üEê°ÅoïñüjüAæ╝é═â|âèâGâXâeâïìçö┬üB
 40
300.0
 72
     5
 11
26955.0
 21
2002.5
  0
TEXT
  7
TextStyle03
  8
òÂÄÜ
 10
-11552.5
 20
-15205.0
  1
ùáö┬üiâ|âèâGâXâeâïìçö┬üjê╚èOé╠î®éªè|é®éÞé═âüâëâ~âôë╗Å¤ö┬
 40
300.0
 72
     5
 11
-2140.0
 21
-15205.0
  0
TEXT
  7
TextStyle03
  8
òÂÄÜ
 10
-6117.5
 20
-12490.0
  1
âüâëâ~âôë╗Å¤ö┬
 40
300.0
 72
     5
 11
-3792.5
 21
-12490.0
  0
TEXT
  7
TextStyle03
  8
òÂÄÜ
 10
20067.5
 20
-10657.5
  1
ìýïãæõ t50 
 40
300.0
 72
     5
 11
22017.5
 21
-10657.5
  0
TEXT
  7
TextStyle03
  8
òÂÄÜ
 10
20067.5
 20
-11017.5
  1
╬▀Ïìçö┬╠Î»╝¡
 40
300.0
 72
     5
 11
22197.5
 21
-11017.5
  0
TEXT
  7
TextStyle03
  8
òÂÄÜ
 10
4780.625
 20
5910.0
  1
PS
 40
300.0
 72
     5
 11
5099.375
 21
5910.0
  0
LINE
  8
Æ╩éÞÉc
 10
4518.6165
 20
-2559.1225
 11
-95.48325
 21
-2559.1225
  0
LINE
  8
Æ╩éÞÉc
 10
1028.0405
 20
-986.4005
 11
1028.0405
 21
-5752.19925
  0
LINE
  8
Æ╩éÞÉc
 10
7266.66875
 20
-6302.28175
 11
7266.66875
 21
-987.659
  0
LINE
  8
Æ╩éÞÉc
 10
5630.68125
 20
-2156.76575
 11
11682.928
 21
-2156.76575
  0
LINE
  8
Æ╩éÞÉc
 10
6474.082
 20
-4606.76575
 11
11682.928
 21
-4606.76575
  0
LINE
  8
Æ╩éÞÉc
 10
10600.00225
 20
-987.659
 11
10600.00225
 21
-6170.21075
  0
LINE
  8
Æ╩éÞÉc
 10
17342.177
 20
-71.986
 11
17342.177
 21
-5722.417
  0
LINE
  8
Æ╩éÞÉc
 10
15658.15025
 20
-1823.6195
 11
24935.547
 21
-1823.6195
  0
LINE
  8
Æ╩éÞÉc
 10
22675.51025
 20
-71.986
 11
22675.51025
 21
-5722.417
  0
LINE
  8
Æ╩éÞÉc
 10
17342.177
 20
-14958.58
 11
17342.177
 21
-8413.319
  0
LINE
  8
Æ╩éÞÉc
 10
22675.51025
 20
-14958.58
 11
22675.51025
 21
-8413.319
  0
LINE
  8
Æ╩éÞÉc
 10
4690.32125
 20
9090.23675
 11
5190.32125
 21
5840.23675
  0
LINE
  8
Æ╩éÞÉc
 10
4690.32125
 20
5840.23675
 11
5190.32125
 21
9090.23675
  0
LINE
  8
┌▓È10
 10
-27650.0
 20
18775.0
 11
-27650.0
 21
-15643.565
  0
LINE
  8
┌▓È10
  6
CONTINUOUS
 10
-27650.0
 20
18775.0
 11
27700.0
 21
18775.0
  0
LINE
  8
┌▓È10
  6
CONTINUOUS
 10
27700.0
 20
-15643.565
 11
-27650.0
 21
-15643.565
  0
LINE
  8
┌▓È10
  6
CONTINUOUS
 10
27700.0
 20
-15643.565
 11
27700.0
 21
18775.0
  0
LINE
  8
┌▓È10
 10
-27650.0
 20
1565.7175
 11
27700.0
 21
1565.7175
  0
LINE
  8
┌▓È10
 10
-27650.0
 20
17775.0
 11
27700.0
 21
17775.0
  0
LINE
  8
┌▓È10
 10
-27650.0
 20
565.7175
 11
27700.0
 21
565.7175
  0
LINE
  8
┌▓È10
 10
-24650.0
 20
18775.0
 11
-24650.0
 21
17775.0
  0
LINE
  8
┌▓È10
 10
-24650.0
 20
18775.0
 11
-24650.0
 21
17775.0
  0
LINE
  8
┌▓È10
 10
-24650.0
 20
1565.7175
 11
-24650.0
 21
565.7175
  0
LINE
  8
┌▓È10
 10
-24650.0
 20
1565.7175
 11
-24650.0
 21
565.7175
  0
LINE
  8
┌▓È10
 10
-1408.284
 20
1565.7175
 11
-1408.284
 21
-15643.565
  0
LINE
  8
┌▓È10
 10
12964.497
 20
1565.7175
 11
12964.497
 21
-15643.565
  0
LINE
  8
┌▓È10
 10
1591.716
 20
1565.7175
 11
1591.716
 21
565.7175
  0
LINE
  8
┌▓È10
 10
1591.716
 20
1565.7175
 11
1591.716
 21
565.7175
  0
LINE
  8
┌▓È10
 10
15964.497
 20
1565.7175
 11
15964.497
 21
565.7175
  0
LINE
  8
┌▓È10
 10
15964.497
 20
1565.7175
 11
15964.497
 21
565.7175
  0
LINE
  8
┌▓È11
  6
DASHED
 10
-23044.93
 20
8506.9035
 11
-21378.2635
 21
8506.9035
  0
LINE
  8
┌▓È11
  6
DASHED
 10
-22211.59675
 20
8506.9035
 11
-22211.59675
 21
14740.23675
  0
POLYLINE
  8
┌▓È12
 66
     1
 70
     1
  0
VERTEX
  8
┌▓È12
 10
10066.66875
 20
-5140.09925
  0
VERTEX
  8
┌▓È12
 10
10066.66875
 20
-4806.76575
  0
VERTEX
  8
┌▓È12
 10
10400.00225
 20
-4806.76575
  0
VERTEX
  8
┌▓È12
 10
10400.00225
 20
-5140.09925
  0
SEQEND
  0
LINE
  8
┌▓È13
 10
1209.70725
 20
-13758.58
 11
3209.70725
 21
-13758.58
  0
LINE
  8
┌▓È13
 10
6741.62725
 20
-13758.58
 11
10503.33825
 21
-13758.58
  0
LINE
  8
┌▓È13
 10
22525.51025
 20
-13758.58
 11
17592.177
 21
-13758.58
  0
LINE
  8
┌▓È13
 10
-20211.59675
 20
6040.23675
 11
-24211.59675
 21
6040.23675
  0
LINE
  8
┌▓È13
 10
-8924.218
 20
6040.23675
 11
-15257.55125
 21
6040.23675
  0
LINE
  8
┌▓È13
 10
-3726.3455
 20
6040.23675
 11
-5059.67875
 21
6040.23675
  0
LINE
  8
┌▓È13
 10
4606.988
 20
6040.23675
 11
2940.32125
 21
6040.23675
  0
LINE
  8
┌▓È13
 10
6940.32125
 20
6040.23675
 11
5273.6545
 21
6040.23675
  0
LINE
  8
┌▓È13
 10
10273.6545
 20
6040.23675
 11
14273.6545
 21
6040.23675
  0
INSERT
  2
*DIM_0001
  8
Éíû@
 10
0.0
 20
0.0
  0
INSERT
  2
*DIM_0002
  8
Éíû@
 10
0.0
 20
0.0
  0
INSERT
  2
*DIM_0003
  8
Éíû@
 10
0.0
 20
0.0
  0
INSERT
  2
*DIM_0004
  8
Éíû@
 10
0.0
 20
0.0
  0
INSERT
  2
*DIM_0005
  8
Éíû@
 10
0.0
 20
0.0
  0
INSERT
  2
*DIM_0006
  8
Éíû@
 10
0.0
 20
0.0
  0
INSERT
  2
*DIM_0007
  8
Éíû@
 10
0.0
 20
0.0
  0
INSERT
  2
*DIM_0008
  8
Éíû@
 10
0.0
 20
0.0
  0
INSERT
  2
*DIM_0009
  8
Éíû@
 10
0.0
 20
0.0
  0
INSERT
  2
*DIM_0010
  8
Éíû@
 10
0.0
 20
0.0
  0
INSERT
  2
*DIM_0011
  8
Éíû@
 10
0.0
 20
0.0
  0
INSERT
  2
*DIM_0012
  8
Éíû@
 10
0.0
 20
0.0
  0
INSERT
  2
*DIM_0013
  8
Éíû@
 10
0.0
 20
0.0
  0
INSERT
  2
*DIM_0014
  8
Éíû@
 10
0.0
 20
0.0
  0
INSERT
  2
*DIM_0015
  8
Éíû@
 10
0.0
 20
0.0
  0
INSERT
  2
*DIM_0016
  8
Éíû@
 10
0.0
 20
0.0
  0
INSERT
  2
*DIM_0017
  8
Éíû@
 10
0.0
 20
0.0
  0
INSERT
  2
*DIM_0018
  8
Éíû@
 10
0.0
 20
0.0
  0
INSERT
  2
*DIM_0019
  8
Éíû@
 10
0.0
 20
0.0
  0
INSERT
  2
*DIM_0020
  8
Éíû@
 10
0.0
 20
0.0
  0
INSERT
  2
*DIM_0021
  8
Éíû@
 10
0.0
 20
0.0
  0
INSERT
  2
*DIM_0022
  8
Éíû@
 10
0.0
 20
0.0
  0
INSERT
  2
*DIM_0023
  8
Éíû@
 10
0.0
 20
0.0
  0
INSERT
  2
*DIM_0024
  8
Éíû@
 10
0.0
 20
0.0
  0
INSERT
  2
*DIM_0025
  8
Éíû@
 10
0.0
 20
0.0
  0
INSERT
  2
*DIM_0026
  8
Éíû@
 10
0.0
 20
0.0
  0
INSERT
  2
*DIM_0027
  8
Éíû@
 10
0.0
 20
0.0
  0
INSERT
  2
*DIM_0028
  8
Éíû@
 10
0.0
 20
0.0
  0
INSERT
  2
*DIM_0029
  8
Éíû@
 10
0.0
 20
0.0
  0
INSERT
  2
*DIM_0030
  8
Éíû@
 10
0.0
 20
0.0
  0
INSERT
  2
*DIM_0031
  8
Éíû@
 10
0.0
 20
0.0
  0
INSERT
  2
*DIM_0032
  8
Éíû@
 10
0.0
 20
0.0
  0
INSERT
  2
*DIM_0033
  8
Éíû@
 10
0.0
 20
0.0
  0
INSERT
  2
*DIM_0034
  8
Éíû@
 10
0.0
 20
0.0
  0
INSERT
  2
*DIM_0035
  8
Éíû@
 10
0.0
 20
0.0
  0
INSERT
  2
*DIM_0036
  8
Éíû@
 10
0.0
 20
0.0
  0
INSERT
  2
*DIM_0037
  8
Éíû@
 10
0.0
 20
0.0
  0
INSERT
  2
*DIM_0038
  8
Éíû@
 10
0.0
 20
0.0
  0
INSERT
  2
*DIM_0039
  8
Éíû@
 10
0.0
 20
0.0
  0
INSERT
  2
*DIM_0040
  8
Éíû@
 10
0.0
 20
0.0
  0
INSERT
  2
*DIM_0041
  8
Éíû@
 10
0.0
 20
0.0
  0
INSERT
  2
*DIM_0042
  8
Éíû@
 10
0.0
 20
0.0
  0
INSERT
  2
*DIM_0043
  8
Éíû@
 10
0.0
 20
0.0
  0
INSERT
  2
*DIM_0044
  8
Éíû@
 10
0.0
 20
0.0
  0
INSERT
  2
*DIM_0045
  8
Éíû@
 10
0.0
 20
0.0
  0
INSERT
  2
*DIM_0046
  8
Éíû@
 10
0.0
 20
0.0
  0
INSERT
  2
*DIM_0047
  8
Éíû@
 10
0.0
 20
0.0
  0
INSERT
  2
*DIM_0048
  8
Éíû@
 10
0.0
 20
0.0
  0
INSERT
  2
*DIM_0049
  8
Éíû@
 10
0.0
 20
0.0
  0
INSERT
  2
*DIM_0050
  8
Éíû@
 10
0.0
 20
0.0
  0
INSERT
  2
*DIM_0051
  8
Éíû@
 10
0.0
 20
0.0
  0
INSERT
  2
*DIM_0052
  8
Éíû@
 10
0.0
 20
0.0
  0
INSERT
  2
*DIM_0053
  8
Éíû@
 10
0.0
 20
0.0
  0
INSERT
  2
*DIM_0054
  8
Éíû@
 10
0.0
 20
0.0
  0
INSERT
  2
*DIM_0055
  8
Éíû@
 10
0.0
 20
0.0
  0
INSERT
  2
*DIM_0056
  8
Éíû@
 10
0.0
 20
0.0
  0
INSERT
  2
*GRP_0057
  8
Éíû@
 10
0.0
 20
0.0
  0
INSERT
  2
*DIM_0058
  8
Éíû@
 10
0.0
 20
0.0
  0
INSERT
  2
*GRP_0059
  8
Éíû@
 10
0.0
 20
0.0
  0
INSERT
  2
*GRP_0060
  8
Éíû@
 10
0.0
 20
0.0
  0
INSERT
  2
*DIM_0061
  8
Éíû@
 10
0.0
 20
0.0
  0
INSERT
  2
*DIM_0062
  8
Éíû@
 10
0.0
 20
0.0
  0
INSERT
  2
*DIM_0063
  8
Éíû@
 10
0.0
 20
0.0
  0
INSERT
  2
*DIM_0064
  8
Éíû@
 10
0.0
 20
0.0
  0
INSERT
  2
*DIM_0065
  8
Éíû@
 10
0.0
 20
0.0
  0
INSERT
  2
*DIM_0066
  8
Éíû@
 10
0.0
 20
0.0
  0
INSERT
  2
*DIM_0067
  8
Éíû@
 10
0.0
 20
0.0
  0
INSERT
  2
*DIM_0068
  8
Éíû@
 10
0.0
 20
0.0
  0
INSERT
  2
*DIM_0069
  8
Éíû@
 10
0.0
 20
0.0
  0
INSERT
  2
*DIM_0070
  8
Éíû@
 10
0.0
 20
0.0
  0
INSERT
  2
*DIM_0071
  8
Éíû@
 10
0.0
 20
0.0
  0
INSERT
  2
*DIM_0072
  8
Éíû@
 10
0.0
 20
0.0
  0
INSERT
  2
*DIM_0073
  8
Éíû@
 10
0.0
 20
0.0
  0
INSERT
  2
*DIM_0074
  8
Éíû@
 10
0.0
 20
0.0
  0
INSERT
  2
*DIM_0075
  8
Éíû@
 10
0.0
 20
0.0
  0
INSERT
  2
*DIM_0076
  8
Éíû@
 10
0.0
 20
0.0
  0
INSERT
  2
*DIM_0077
  8
Éíû@
 10
0.0
 20
0.0
  0
INSERT
  2
*DIM_0078
  8
Éíû@
 10
0.0
 20
0.0
  0
INSERT
  2
*DIM_0079
  8
Éíû@
 10
0.0
 20
0.0
  0
INSERT
  2
*DIM_0080
  8
Éíû@
 10
0.0
 20
0.0
  0
INSERT
  2
*DIM_0081
  8
Éíû@
 10
0.0
 20
0.0
  0
INSERT
  2
*DIM_0082
  8
Éíû@
 10
0.0
 20
0.0
  0
INSERT
  2
*DIM_0083
  8
Éíû@
 10
0.0
 20
0.0
  0
INSERT
  2
*DIM_0084
  8
Éíû@
 10
0.0
 20
0.0
  0
INSERT
  2
*DIM_0085
  8
Éíû@
 10
0.0
 20
0.0
  0
INSERT
  2
*DIM_0086
  8
Éíû@
 10
0.0
 20
0.0
  0
INSERT
  2
*DIM_0087
  8
Éíû@
 10
0.0
 20
0.0
  0
INSERT
  2
*DIM_0088
  8
Éíû@
 10
0.0
 20
0.0
  0
INSERT
  2
*DIM_0089
  8
Éíû@
 10
0.0
 20
0.0
  0
INSERT
  2
*DIM_0090
  8
Éíû@
 10
0.0
 20
0.0
  0
INSERT
  2
*DIM_0091
  8
Éíû@
 10
0.0
 20
0.0
  0
INSERT
  2
*DIM_0092
  8
Éíû@
 10
0.0
 20
0.0
  0
INSERT
  2
*DIM_0093
  8
Éíû@
 10
0.0
 20
0.0
  0
INSERT
  2
*DIM_0094
  8
Éíû@
 10
0.0
 20
0.0
  0
INSERT
  2
*DIM_0095
  8
Éíû@
 10
0.0
 20
0.0
  0
INSERT
  2
*DIM_0096
  8
Éíû@
 10
0.0
 20
0.0
  0
INSERT
  2
*DIM_0097
  8
Éíû@
 10
0.0
 20
0.0
  0
INSERT
  2
*DIM_0098
  8
Éíû@
 10
0.0
 20
0.0
  0
INSERT
  2
*DIM_0099
  8
Éíû@
 10
0.0
 20
0.0
  0
INSERT
  2
*DIM_0100
  8
Éíû@
 10
0.0
 20
0.0
  0
INSERT
  2
*DIM_0101
  8
Éíû@
 10
0.0
 20
0.0
  0
INSERT
  2
*DIM_0102
  8
Éíû@
 10
0.0
 20
0.0
  0
INSERT
  2
*DIM_0103
  8
Éíû@
 10
0.0
 20
0.0
  0
INSERT
  2
*DIM_0104
  8
Éíû@
 10
0.0
 20
0.0
  0
INSERT
  2
*DIM_0105
  8
Éíû@
 10
0.0
 20
0.0
  0
INSERT
  2
*DIM_0106
  8
Éíû@
 10
0.0
 20
0.0
  0
INSERT
  2
*DIM_0107
  8
Éíû@
 10
0.0
 20
0.0
  0
INSERT
  2
*DIM_0108
  8
Éíû@
 10
0.0
 20
0.0
  0
INSERT
  2
*DIM_0109
  8
Éíû@
 10
0.0
 20
0.0
  0
INSERT
  2
*DIM_0110
  8
Éíû@
 10
0.0
 20
0.0
  0
INSERT
  2
*DIM_0111
  8
Éíû@
 10
0.0
 20
0.0
  0
INSERT
  2
*DIM_0112
  8
Éíû@
 10
0.0
 20
0.0
  0
INSERT
  2
*DIM_0113
  8
Éíû@
 10
0.0
 20
0.0
  0
INSERT
  2
*DIM_0114
  8
Éíû@
 10
0.0
 20
0.0
  0
INSERT
  2
*DIM_0116
  8
Éíû@
 10
0.0
 20
0.0
  0
INSERT
  2
*DIM_0117
  8
Éíû@
 10
0.0
 20
0.0
  0
INSERT
  2
*DIM_0118
  8
Éíû@
 10
0.0
 20
0.0
  0
INSERT
  2
*DIM_0119
  8
Éíû@
 10
0.0
 20
0.0
  0
INSERT
  2
*GRP_0120
  8
Éíû@
 10
0.0
 20
0.0
  0
INSERT
  2
*DIM_0121
  8
Éíû@
 10
0.0
 20
0.0
  0
INSERT
  2
*DIM_0124
  8
Éíû@
 10
0.0
 20
0.0
  0
INSERT
  2
*DIM_0125
  8
Éíû@
 10
0.0
 20
0.0
  0
INSERT
  2
*DIM_0126
  8
Éíû@
 10
0.0
 20
0.0
  0
INSERT
  2
*DIM_0127
  8
Éíû@
 10
0.0
 20
0.0
  0
INSERT
  2
*DIM_0128
  8
Éíû@
 10
0.0
 20
0.0
  0
INSERT
  2
*DIM_0129
  8
Éíû@
 10
0.0
 20
0.0
  0
INSERT
  2
*DIM_0130
  8
Éíû@
 10
0.0
 20
0.0
  0
INSERT
  2
*DIM_0131
  8
Éíû@
 10
0.0
 20
0.0
  0
INSERT
  2
*DIM_0132
  8
Éíû@
 10
0.0
 20
0.0
  0
INSERT
  2
*DIM_0133
  8
Éíû@
 10
0.0
 20
0.0
  0
LINE
  8
Éíû@
 10
-6948.2705
 20
15932.51675
 11
-7238.04825
 21
15854.871
  0
INSERT
  2
*DIM_0134
  8
Éíû@
 10
0.0
 20
0.0
  0
TEXT
  7
TextStyle03
  8
Éíû@
  6
CONTINUOUS
 10
-6770.0
 20
4142.5
  1
1,500
 40
300.0
 72
     5
 11
-5945.0
 21
4142.5
  0
LINE
  8
Éíû@
 10
-5059.67875
 20
4107.27725
 11
-7238.04825
 21
4107.27725
  0
LINE
  8
Éíû@
 10
-6948.2705
 20
4184.923
 11
-7238.04825
 21
4107.27725
  0
INSERT
  2
*DIM_0135
  8
Éíû@
 10
0.0
 20
0.0
  0
INSERT
  2
*DIM_0136
  8
Éíû@
 10
0.0
 20
0.0
  0
INSERT
  2
*DIM_0137
  8
Éíû@
 10
0.0
 20
0.0
  0
INSERT
  2
*DIM_0138
  8
Éíû@
 10
0.0
 20
0.0
  0
INSERT
  2
*DIM_0139
  8
Éíû@
 10
0.0
 20
0.0
  0
INSERT
  2
*DIM_0140
  8
Éíû@
 10
0.0
 20
0.0
  0
INSERT
  2
*DIM_0141
  8
Éíû@
 10
0.0
 20
0.0
  0
INSERT
  2
*DIM_0142
  8
Éíû@
 10
0.0
 20
0.0
  0
INSERT
  2
*DIM_0143
  8
Éíû@
 10
0.0
 20
0.0
  0
INSERT
  2
*DIM_0144
  8
Éíû@
 10
0.0
 20
0.0
  0
INSERT
  2
*DIM_0145
  8
Éíû@
 10
0.0
 20
0.0
  0
INSERT
  2
*DIM_0146
  8
Éíû@
 10
0.0
 20
0.0
  0
INSERT
  2
*DIM_0147
  8
Éíû@
 10
0.0
 20
0.0
  0
INSERT
  2
*DIM_0148
  8
Éíû@
 10
0.0
 20
0.0
  0
INSERT
  2
*DIM_0149
  8
Éíû@
 10
0.0
 20
0.0
  0
INSERT
  2
*DIM_0150
  8
Éíû@
 10
0.0
 20
0.0
  0
INSERT
  2
*DIM_0151
  8
Éíû@
 10
0.0
 20
0.0
  0
INSERT
  2
*DIM_0152
  8
Éíû@
 10
0.0
 20
0.0
  0
INSERT
  2
*DIM_0153
  8
Éíû@
 10
0.0
 20
0.0
  0
INSERT
  2
*DIM_0154
  8
Éíû@
 10
0.0
 20
0.0
  0
INSERT
  2
*DIM_0155
  8
Éíû@
 10
0.0
 20
0.0
  0
INSERT
  2
*DIM_0156
  8
Éíû@
 10
0.0
 20
0.0
  0
INSERT
  2
*DIM_0157
  8
Éíû@
 10
0.0
 20
0.0
  0
INSERT
  2
*DIM_0158
  8
Éíû@
 10
0.0
 20
0.0
  0
INSERT
  2
*DIM_0159
  8
Éíû@
 10
0.0
 20
0.0
  0
INSERT
  2
*DIM_0160
  8
Éíû@
 10
0.0
 20
0.0
  0
LINE
  8
Éíû@
 10
-5726.3455
 20
15254.871
 11
-5726.3455
 21
15854.871
  0
POINT
  8
Éíû@
 10
-5726.3455
 20
15854.871
  0
LINE
  8
Éíû@
 10
-7238.04825
 20
15854.871
 11
-5726.3455
 21
15854.871
  0
INSERT
  2
*DIM_0161
  8
Éíû@
 10
0.0
 20
0.0
  0
INSERT
  2
*DIM_0162
  8
Éíû@
 10
0.0
 20
0.0
  0
INSERT
  2
*DIM_0163
  8
Éíû@
 10
0.0
 20
0.0
  0
INSERT
  2
*DIM_0164
  8
Éíû@
 10
0.0
 20
0.0
  0
INSERT
  2
*DIM_0165
  8
Éíû@
 10
0.0
 20
0.0
  0
INSERT
  2
*DIM_0166
  8
Éíû@
 10
0.0
 20
0.0
  0
INSERT
  2
*DIM_0167
  8
Éíû@
 10
0.0
 20
0.0
  0
TEXT
  7
TextStyle03
  8
Éíû@
  6
CONTINUOUS
 10
-6770.0
 20
15890.0
  1
1,300
 40
300.0
 72
     5
 11
-5945.0
 21
15890.0
  0
INSERT
  2
*GRP_0168
  8
Éíû@
 10
0.0
 20
0.0
  0
INSERT
  2
*DIM_0169
  8
Éíû@
 10
0.0
 20
0.0
  0
INSERT
  2
*DIM_0170
  8
Éíû@
 10
0.0
 20
0.0
  0
INSERT
  2
*DIM_0171
  8
Éíû@
 10
0.0
 20
0.0
  0
INSERT
  2
*DIM_0172
  8
Éíû@
 10
0.0
 20
0.0
  0
LINE
  8
┌▓È9
 10
-21315.12
 20
-10061.9135
 11
-22159.2865
 21
-10061.9135
  0
LINE
  8
┌▓È9
 10
-22219.2865
 20
-10061.9135
 11
-23063.45325
 21
-10061.9135
  0
LINE
  8
┌▓È9
 10
-23123.45325
 20
-10061.9135
 11
-23967.62
 21
-10061.9135
  0
LINE
  8
┌▓È9
 10
-24027.62
 20
-10061.9135
 11
-24871.7865
 21
-10061.9135
  0
LINE
  8
┌▓È9
 10
-21315.12
 20
-10091.9135
 11
-22159.2865
 21
-10091.9135
  0
LINE
  8
┌▓È9
 10
-22219.2865
 20
-10091.9135
 11
-23063.45325
 21
-10091.9135
  0
LINE
  8
┌▓È9
 10
-23123.45325
 20
-10091.9135
 11
-23967.62
 21
-10091.9135
  0
LINE
  8
┌▓È9
 10
-24027.62
 20
-10091.9135
 11
-24871.7865
 21
-10091.9135
  0
LINE
  8
┌▓È9
 10
-21315.12
 20
-12061.9135
 11
-22159.2865
 21
-12061.9135
  0
LINE
  8
┌▓È9
 10
-22219.2865
 20
-12061.9135
 11
-23063.45325
 21
-12061.9135
  0
LINE
  8
┌▓È9
 10
-23123.45325
 20
-12061.9135
 11
-23967.62
 21
-12061.9135
  0
LINE
  8
┌▓È9
 10
-24027.62
 20
-12061.9135
 11
-24871.7865
 21
-12061.9135
  0
LINE
  8
┌▓È9
 10
-21315.12
 20
-12091.9135
 11
-22159.2865
 21
-12091.9135
  0
LINE
  8
┌▓È9
 10
-22219.2865
 20
-12091.9135
 11
-23063.45325
 21
-12091.9135
  0
LINE
  8
┌▓È9
 10
-23123.45325
 20
-12091.9135
 11
-23967.62
 21
-12091.9135
  0
LINE
  8
┌▓È9
 10
-24027.62
 20
-12091.9135
 11
-24871.7865
 21
-12091.9135
  0
LINE
  8
┌▓È9
 10
-21315.12
 20
-13061.9135
 11
-22159.2865
 21
-13061.9135
  0
LINE
  8
┌▓È9
 10
-22219.2865
 20
-13061.9135
 11
-23063.45325
 21
-13061.9135
  0
LINE
  8
┌▓È9
 10
-23123.45325
 20
-13061.9135
 11
-23967.62
 21
-13061.9135
  0
LINE
  8
┌▓È9
 10
-24027.62
 20
-13061.9135
 11
-24871.7865
 21
-13061.9135
  0
LINE
  8
┌▓È9
 10
-21315.12
 20
-13091.9135
 11
-22159.2865
 21
-13091.9135
  0
LINE
  8
┌▓È9
 10
-22219.2865
 20
-13091.9135
 11
-23063.45325
 21
-13091.9135
  0
LINE
  8
┌▓È9
 10
-23123.45325
 20
-13091.9135
 11
-23967.62
 21
-13091.9135
  0
LINE
  8
┌▓È9
 10
-24027.62
 20
-13091.9135
 11
-24871.7865
 21
-13091.9135
  0
LINE
  8
┌▓È9
 10
-21315.12
 20
-11061.9135
 11
-22159.2865
 21
-11061.9135
  0
LINE
  8
┌▓È9
 10
-22219.2865
 20
-11061.9135
 11
-23063.45325
 21
-11061.9135
  0
LINE
  8
┌▓È9
 10
-23123.45325
 20
-11061.9135
 11
-23967.62
 21
-11061.9135
  0
LINE
  8
┌▓È9
 10
-24027.62
 20
-11061.9135
 11
-24871.7865
 21
-11061.9135
  0
LINE
  8
┌▓È9
 10
-21315.12
 20
-11091.9135
 11
-22159.2865
 21
-11091.9135
  0
LINE
  8
┌▓È9
 10
-22219.2865
 20
-11091.9135
 11
-23063.45325
 21
-11091.9135
  0
LINE
  8
┌▓È9
 10
-23123.45325
 20
-11091.9135
 11
-23967.62
 21
-11091.9135
  0
LINE
  8
┌▓È9
 10
-24027.62
 20
-11091.9135
 11
-24871.7865
 21
-11091.9135
  0
LINE
  8
┌▓È9
 10
-15419.09425
 20
-10061.91325
 11
-14569.09425
 21
-10061.91325
  0
LINE
  8
┌▓È9
 10
-14509.09425
 20
-10061.91325
 11
-13659.09425
 21
-10061.91325
  0
LINE
  8
┌▓È9
 10
-18149.09425
 20
-10061.91325
 11
-17299.09425
 21
-10061.91325
  0
LINE
  8
┌▓È9
 10
-17239.09425
 20
-10061.91325
 11
-16389.09425
 21
-10061.91325
  0
LINE
  8
┌▓È9
 10
-16329.09425
 20
-10061.91325
 11
-15479.09425
 21
-10061.91325
  0
LINE
  8
┌▓È9
 10
-15419.09425
 20
-10091.91325
 11
-14569.09425
 21
-10091.91325
  0
LINE
  8
┌▓È9
 10
-14509.09425
 20
-10091.91325
 11
-13659.09425
 21
-10091.91325
  0
LINE
  8
┌▓È9
 10
-18149.09425
 20
-10091.91325
 11
-17299.09425
 21
-10091.91325
  0
LINE
  8
┌▓È9
 10
-17239.09425
 20
-10091.91325
 11
-16389.09425
 21
-10091.91325
  0
LINE
  8
┌▓È9
 10
-16329.09425
 20
-10091.91325
 11
-15479.09425
 21
-10091.91325
  0
LINE
  8
┌▓È9
 10
-15419.09425
 20
-11061.91325
 11
-14569.09425
 21
-11061.91325
  0
LINE
  8
┌▓È9
 10
-14509.09425
 20
-11061.91325
 11
-13659.09425
 21
-11061.91325
  0
LINE
  8
┌▓È9
 10
-18149.09425
 20
-11061.91325
 11
-17299.09425
 21
-11061.91325
  0
LINE
  8
┌▓È9
 10
-17239.09425
 20
-11061.91325
 11
-16389.09425
 21
-11061.91325
  0
LINE
  8
┌▓È9
 10
-16329.09425
 20
-11061.91325
 11
-15479.09425
 21
-11061.91325
  0
LINE
  8
┌▓È9
 10
-15419.09425
 20
-11091.91325
 11
-14569.09425
 21
-11091.91325
  0
LINE
  8
┌▓È9
 10
-14509.09425
 20
-11091.91325
 11
-13659.09425
 21
-11091.91325
  0
LINE
  8
┌▓È9
 10
-18149.09425
 20
-11091.91325
 11
-17299.09425
 21
-11091.91325
  0
LINE
  8
┌▓È9
 10
-17239.09425
 20
-11091.91325
 11
-16389.09425
 21
-11091.91325
  0
LINE
  8
┌▓È9
 10
-16329.09425
 20
-11091.91325
 11
-15479.09425
 21
-11091.91325
  0
LINE
  8
┌▓È9
 10
-15419.09425
 20
-12061.91325
 11
-14569.09425
 21
-12061.91325
  0
LINE
  8
┌▓È9
 10
-14509.09425
 20
-12061.91325
 11
-13659.09425
 21
-12061.91325
  0
LINE
  8
┌▓È9
 10
-18149.09425
 20
-12061.91325
 11
-17299.09425
 21
-12061.91325
  0
LINE
  8
┌▓È9
 10
-17239.09425
 20
-12061.91325
 11
-16389.09425
 21
-12061.91325
  0
LINE
  8
┌▓È9
 10
-16329.09425
 20
-12061.91325
 11
-15479.09425
 21
-12061.91325
  0
LINE
  8
┌▓È9
 10
-15419.09425
 20
-12091.91325
 11
-14569.09425
 21
-12091.91325
  0
LINE
  8
┌▓È9
 10
-14509.09425
 20
-12091.91325
 11
-13659.09425
 21
-12091.91325
  0
LINE
  8
┌▓È9
 10
-18149.09425
 20
-12091.91325
 11
-17299.09425
 21
-12091.91325
  0
LINE
  8
┌▓È9
 10
-17239.09425
 20
-12091.91325
 11
-16389.09425
 21
-12091.91325
  0
LINE
  8
┌▓È9
 10
-16329.09425
 20
-12091.91325
 11
-15479.09425
 21
-12091.91325
  0
LINE
  8
┌▓È9
 10
-15419.09425
 20
-13061.91325
 11
-14569.09425
 21
-13061.91325
  0
LINE
  8
┌▓È9
 10
-14509.09425
 20
-13061.91325
 11
-13659.09425
 21
-13061.91325
  0
LINE
  8
┌▓È9
 10
-18149.09425
 20
-13061.91325
 11
-17299.09425
 21
-13061.91325
  0
LINE
  8
┌▓È9
 10
-17239.09425
 20
-13061.91325
 11
-16389.09425
 21
-13061.91325
  0
LINE
  8
┌▓È9
 10
-16329.09425
 20
-13061.91325
 11
-15479.09425
 21
-13061.91325
  0
LINE
  8
┌▓È9
 10
-15419.09425
 20
-13091.91325
 11
-14569.09425
 21
-13091.91325
  0
LINE
  8
┌▓È9
 10
-14509.09425
 20
-13091.91325
 11
-13659.09425
 21
-13091.91325
  0
LINE
  8
┌▓È9
 10
-18149.09425
 20
-13091.91325
 11
-17299.09425
 21
-13091.91325
  0
LINE
  8
┌▓È9
 10
-17239.09425
 20
-13091.91325
 11
-16389.09425
 21
-13091.91325
  0
LINE
  8
┌▓È9
 10
-16329.09425
 20
-13091.91325
 11
-15479.09425
 21
-13091.91325
  0
LINE
  8
┌▓È9
 10
-11832.4275
 20
-12061.91325
 11
-12685.76075
 21
-12061.91325
  0
LINE
  8
┌▓È9
 10
-11832.4275
 20
-12091.91325
 11
-12685.76075
 21
-12091.91325
  0
LINE
  8
┌▓È9
 10
-12745.76075
 20
-12091.91325
 11
-13599.09425
 21
-12091.91325
  0
LINE
  8
┌▓È9
 10
-12745.76075
 20
-12061.91325
 11
-13599.09425
 21
-12061.91325
  0
LINE
  8
┌▓È9
 10
-11832.4275
 20
-10091.91325
 11
-12685.76075
 21
-10091.91325
  0
LINE
  8
┌▓È9
 10
-11832.4275
 20
-10061.91325
 11
-12685.76075
 21
-10061.91325
  0
LINE
  8
┌▓È9
 10
-12745.76075
 20
-10091.91325
 11
-13599.09425
 21
-10091.91325
  0
LINE
  8
┌▓È9
 10
-12745.76075
 20
-10061.91325
 11
-13599.09425
 21
-10061.91325
  0
LINE
  8
┌▓È9
 10
-7332.54125
 20
-13061.91325
 11
-7332.54125
 21
-13091.91325
  0
LINE
  8
┌▓È9
 10
-7332.54125
 20
-12061.91325
 11
-7332.54125
 21
-12091.91325
  0
LINE
  8
┌▓È9
 10
-7332.54125
 20
-12061.91325
 11
-6332.54125
 21
-12061.91325
  0
LINE
  8
┌▓È9
 10
-7332.54125
 20
-12091.91325
 11
-6332.54125
 21
-12091.91325
  0
LINE
  8
┌▓È9
 10
-7332.54125
 20
-13061.91325
 11
-6332.54125
 21
-13061.91325
  0
LINE
  8
┌▓È9
 10
-7332.54125
 20
-13091.91325
 11
-6332.54125
 21
-13091.91325
  0
LINE
  8
┌▓È9
 10
-7332.54125
 20
-11061.91325
 11
-7332.54125
 21
-11091.91325
  0
LINE
  8
┌▓È9
 10
-7332.54125
 20
-11061.91325
 11
-6332.54125
 21
-11061.91325
  0
LINE
  8
┌▓È9
 10
-7332.54125
 20
-11091.91325
 11
-6332.54125
 21
-11091.91325
  0
LINE
  8
┌▓È9
 10
-7332.54125
 20
-10061.91325
 11
-7332.54125
 21
-10091.91325
  0
LINE
  8
┌▓È9
 10
-7332.54125
 20
-10061.91325
 11
-6332.54125
 21
-10061.91325
  0
LINE
  8
┌▓È9
 10
-7332.54125
 20
-10091.91325
 11
-6332.54125
 21
-10091.91325
  0
LINE
  8
┌▓È9
 10
-6332.54125
 20
-9758.58
 11
-6332.54125
 21
-13691.91325
  0
LINE
  8
┌▓È9
 10
-7399.208
 20
-13691.91325
 11
-7399.208
 21
-9758.58
  0
LINE
  8
┌▓È9
 10
18508.8435
 20
-2490.286
 11
22175.51025
 21
-2490.286
  0
LINE
  8
┌▓È9
 10
22175.51025
 20
-1956.95275
 11
18508.8435
 21
-1956.95275
  0
LINE
  8
┌▓È9
 10
18508.8435
 20
-1723.6195
 11
22175.51025
 21
-1723.6195
  0
LINE
  8
┌▓È9
 10
17158.84375
 20
-13958.58
 11
17158.84375
 21
-8413.319
  0
LINE
  8
┌▓È7
 10
15658.15025
 20
-2440.286
 11
24935.547
 21
-2440.286
  0
LINE
  8
┌▓È7
 10
22743.8925
 20
-9923.18225
 11
22743.8925
 21
-8413.319
  0
LINE
  8
▒¢█»©
 10
10500.00225
 20
-3706.76575
 11
10700.00225
 21
-3706.76575
  0
LINE
  8
▒¢█»©
 10
10500.00225
 20
-2456.76575
 11
10700.00225
 21
-2456.76575
  0
LINE
  8
▒¢█»©
 10
10783.3355
 20
-4706.76575
 11
10783.3355
 21
-4506.76575
  0
LINE
  8
▒¢█»©
 10
18342.177
 20
-1723.6195
 11
18342.177
 21
-1923.6195
  0
LINE
  8
▒¢█»©
 10
22342.177
 20
-1723.6195
 11
22342.177
 21
-1923.6195
  0
ENDSEC
  0
EOF
