  0
SECTION
  2
HEADER
  9
$EXTMIN
 10
-29700.0
 20
-21000.0
  9
$EXTMAX
 10
29700.0
 20
21000.0
  9
$PDMODE
 70
    32
  9
$PDSIZE
 40
150.0
  9
$LTSCALE
 40
1000.0
  0
ENDSEC
  0
SECTION
  2
TABLES
  0
TABLE
  2
LTYPE
 70
    15
  0
LTYPE
  2
CONTINUOUS
 70
    64
  3
Ä└É³
 72
    65
 73
     0
 40
0.0
  0
LTYPE
  2
DASHED
 70
    64
  3
öjÉ³A
 72
    65
 73
     2
 40
0.6
 49
0.4
 49
-0.2
  0
LTYPE
  2
DASHEDX2
 70
    64
  3
öjÉ³B
 72
    65
 73
     2
 40
1.3
 49
0.9
 49
-0.4
  0
LTYPE
  2
DASHDOT
 70
    64
  3
éPô_ì¢É³A
 72
    65
 73
     4
 40
0.5375
 49
0.375
 49
-0.05
 49
0.0625
 49
-0.05
  0
LTYPE
  2
DASHDOTX2
 70
    64
  3
éPô_ì¢É³B
 72
    65
 73
     4
 40
1.075
 49
0.75
 49
-0.1
 49
0.125
 49
-0.1
  0
LTYPE
  2
DIVIDE2
 70
    64
  3
éQô_ì¢É³A
 72
    65
 73
     6
 40
0.5125
 49
0.3
 49
-0.0375
 49
0.05
 49
-0.0375
 49
0.05
 49
-0.0375
  0
LTYPE
  2
DIVIDE
 70
    64
  3
éQô_ì¢É³B
 72
    65
 73
     6
 40
1.05
 49
0.55
 49
-0.1
 49
0.1
 49
-0.1
 49
0.1
 49
-0.1
  0
LTYPE
  2
DOT
 70
    64
  3
ô_É³A
 72
    65
 73
     2
 40
0.1125
 49
0.0625
 49
-0.05
  0
LTYPE
  2
DOTX2
 70
    64
  3
ô_É³B
 72
    65
 73
     2
 40
0.275
 49
0.15
 49
-0.125
  0
LTYPE
  2
CONTINUOUS
 70
    64
  3
Ä└É³
 72
    65
 73
     0
 40
0.0
  0
LTYPE
  2
CONTINUOUS
 70
    64
  3
Ä└É³
 72
    65
 73
     0
 40
0.0
  0
LTYPE
  2
CONTINUOUS
 70
    64
  3
Ä└É³
 72
    65
 73
     0
 40
0.0
  0
LTYPE
  2
CONTINUOUS
 70
    64
  3
Ä└É³
 72
    65
 73
     0
 40
0.0
  0
LTYPE
  2
CONTINUOUS
 70
    64
  3
Ä└É³
 72
    65
 73
     0
 40
0.0
  0
LTYPE
  2
CONTINUOUS
 70
    64
  3
Ä└É³
 72
    65
 73
     0
 40
0.0
  0
ENDTAB
  0
TABLE
  2
LAYER
 70
    25
  0
LAYER
  2
┌▓È1
 70
     0
 62
     7
  6
DASHDOT
  0
LAYER
  2
┌▓È2
 70
     0
 62
     4
  6
DASHDOTX2
  0
LAYER
  2
┌▓È3
 70
     0
 62
    15
  6
CONTINUOUS
  0
LAYER
  2
┌▓È4
 70
     0
 62
     5
  6
CONTINUOUS
  0
LAYER
  2
┌▓È5
 70
     0
 62
     2
  6
CONTINUOUS
  0
LAYER
  2
┌▓È6
 70
     0
 62
     3
  6
CONTINUOUS
  0
LAYER
  2
┌▓È7
 70
     0
 62
    -1
  6
DOT
  0
LAYER
  2
┌▓È8
 70
     0
 62
    13
  6
CONTINUOUS
  0
LAYER
  2
┌▓È9
 70
     0
 62
     8
  6
CONTINUOUS
  0
LAYER
  2
┌▓È10
 70
     0
 62
    11
  6
DASHDOT
  0
LAYER
  2
┌▓È11
 70
     0
 62
    16
  6
CONTINUOUS
  0
LAYER
  2
┌▓È12
 70
     0
 62
    10
  6
CONTINUOUS
  0
LAYER
  2
┌▓È13
 70
     0
 62
    14
  6
CONTINUOUS
  0
LAYER
  2
┌▓È14
 70
     0
 62
    12
  6
DOT
  0
LAYER
  2
┌▓È15
 70
     0
 62
    29
  6
CONTINUOUS
  0
LAYER
  2
┌▓È16
 70
     0
 62
    34
  6
CONTINUOUS
  0
LAYER
  2
Ê░¢
 70
     0
 62
    37
  6
CONTINUOUS
  0
LAYER
  2
13
 70
     0
 62
    18
  6
CONTINUOUS
  0
LAYER
  2
1
 70
     0
 62
     7
  6
CONTINUOUS
  0
LAYER
  2
▒¢█»©
 70
     0
 62
    64
  6
CONTINUOUS
  0
LAYER
  2
WD
 70
     0
 62
    68
  6
CONTINUOUS
  0
LAYER
  2
òÔÅòÉ³
 70
     0
 62
    38
  6
DOT
  0
LAYER
  2
òÂÄÜ
 70
     0
 62
    39
  6
CONTINUOUS
  0
LAYER
  2
Éíû@
 70
     0
 62
    46
  6
CONTINUOUS
  0
LAYER
  2
╩»┴¦©Ì
 70
     0
 62
    47
  6
CONTINUOUS
  0
ENDTAB
  0
TABLE
  2
STYLE
 70
    10
  0
STYLE
  2
STANDARD
 70
     0
 40
100.0
 41
1.0
 42
100.0
 50
0.0
 71
     0
  3
TXT
  4
BIGFONT
  0
STYLE
  2
TATE
 70
     4
 40
100.0
 41
1.0
 42
100.0
 50
0.0
 71
     0
  3
TXT
  4
BIGFONT
  0
STYLE
  2
TextStyle03
 70
     0
 40
100.0
 41
1.0
 42
100.0
 50
0.0
 71
     0
  3
MONOTXT
  4
BIGFONT
  0
STYLE
  2
TextStyle04
 70
     0
 40
100.0
 41
1.0
 42
100.0
 50
0.0
 71
     0
  3
MONOTXT
  4
BIGFONT
  0
STYLE
  2
TextStyle05
 70
     0
 40
100.0
 41
1.0
 42
100.0
 50
0.0
 71
     0
  3
MONOTXT
  4
BIGFONT
  0
STYLE
  2
TextStyle06
 70
     0
 40
100.0
 41
1.0
 42
100.0
 50
0.0
 71
     0
  3
MONOTXT
  4
BIGFONT
  0
STYLE
  2
TextStyle07
 70
     0
 40
100.0
 41
1.0
 42
100.0
 50
0.0
 71
     0
  3
MONOTXT
  4
BIGFONT
  0
STYLE
  2
TextStyle08
 70
     0
 40
100.0
 41
1.0
 42
100.0
 50
0.0
 71
     0
  3
MONOTXT
  4
BIGFONT
  0
STYLE
  2
TextStyle09
 70
     0
 40
100.0
 41
1.0
 42
100.0
 50
0.0
 71
     0
  3
MONOTXT
  4
BIGFONT
  0
STYLE
  2
TextStyle10
 70
     0
 40
100.0
 41
1.0
 42
100.0
 50
0.0
 71
     0
  3
MONOTXT
  4
BIGFONT
  0
ENDTAB
  0
ENDSEC
  0
SECTION
  2
BLOCKS
  0
BLOCK
  2
*HAT_0001
 70
    65
 10
0.0
 20
0.0
  0
LINE
  8
┌▓È15
  6
CONTINUOUS
 10
-1427.5
 20
16250.0
 11
-1322.5
 21
16145.0
  0
LINE
  8
┌▓È15
  6
CONTINUOUS
 10
-1330.0
 20
16295.0
 11
-1180.0
 21
16145.0
  0
LINE
  8
┌▓È15
  6
CONTINUOUS
 10
-1190.0
 20
16295.0
 11
-1040.0
 21
16145.0
  0
LINE
  8
┌▓È15
  6
CONTINUOUS
 10
-1050.0
 20
16295.0
 11
-900.0
 21
16145.0
  0
LINE
  8
┌▓È15
  6
CONTINUOUS
 10
-907.5
 20
16295.0
 11
-757.5
 21
16145.0
  0
LINE
  8
┌▓È15
  6
CONTINUOUS
 10
-767.5
 20
16295.0
 11
-617.5
 21
16145.0
  0
LINE
  8
┌▓È15
  6
CONTINUOUS
 10
-625.0
 20
16295.0
 11
-475.0
 21
16145.0
  0
LINE
  8
┌▓È15
  6
CONTINUOUS
 10
-485.0
 20
16295.0
 11
-335.0
 21
16145.0
  0
LINE
  8
┌▓È15
  6
CONTINUOUS
 10
-342.5
 20
16295.0
 11
-192.5
 21
16145.0
  0
LINE
  8
┌▓È15
  6
CONTINUOUS
 10
-202.5
 20
16295.0
 11
-52.5
 21
16145.0
  0
LINE
  8
┌▓È15
  6
CONTINUOUS
 10
-60.0
 20
16295.0
 11
90.0
 21
16145.0
  0
LINE
  8
┌▓È15
  6
CONTINUOUS
 10
80.0
 20
16295.0
 11
230.0
 21
16145.0
  0
LINE
  8
┌▓È15
  6
CONTINUOUS
 10
222.5
 20
16295.0
 11
372.5
 21
16145.0
  0
LINE
  8
┌▓È15
  6
CONTINUOUS
 10
362.5
 20
16295.0
 11
452.5
 21
16205.0
  0
ENDBLK
  0
BLOCK
  2
*HAT_0002
 70
    65
 10
0.0
 20
0.0
  0
LINE
  8
┌▓È15
  6
CONTINUOUS
 10
452.5
 20
9427.5
 11
572.5
 21
9307.5
  0
LINE
  8
┌▓È15
  6
CONTINUOUS
 10
452.5
 20
9570.0
 11
572.5
 21
9447.5
  0
LINE
  8
┌▓È15
  6
CONTINUOUS
 10
452.5
 20
9710.0
 11
572.5
 21
9590.0
  0
LINE
  8
┌▓È15
  6
CONTINUOUS
 10
452.5
 20
9852.5
 11
572.5
 21
9730.0
  0
LINE
  8
┌▓È15
  6
CONTINUOUS
 10
452.5
 20
9992.5
 11
572.5
 21
9872.5
  0
LINE
  8
┌▓È15
  6
CONTINUOUS
 10
452.5
 20
10135.0
 11
572.5
 21
10012.5
  0
LINE
  8
┌▓È15
  6
CONTINUOUS
 10
452.5
 20
10275.0
 11
572.5
 21
10155.0
  0
LINE
  8
┌▓È15
  6
CONTINUOUS
 10
452.5
 20
10415.0
 11
572.5
 21
10295.0
  0
LINE
  8
┌▓È15
  6
CONTINUOUS
 10
452.5
 20
10557.5
 11
572.5
 21
10437.5
  0
LINE
  8
┌▓È15
  6
CONTINUOUS
 10
452.5
 20
10697.5
 11
572.5
 21
10577.5
  0
LINE
  8
┌▓È15
  6
CONTINUOUS
 10
452.5
 20
10840.0
 11
572.5
 21
10720.0
  0
LINE
  8
┌▓È15
  6
CONTINUOUS
 10
452.5
 20
10980.0
 11
572.5
 21
10860.0
  0
LINE
  8
┌▓È15
  6
CONTINUOUS
 10
452.5
 20
11122.5
 11
572.5
 21
11002.5
  0
LINE
  8
┌▓È15
  6
CONTINUOUS
 10
452.5
 20
11262.5
 11
572.5
 21
11142.5
  0
LINE
  8
┌▓È15
  6
CONTINUOUS
 10
452.5
 20
11405.0
 11
572.5
 21
11285.0
  0
LINE
  8
┌▓È15
  6
CONTINUOUS
 10
452.5
 20
11545.0
 11
572.5
 21
11425.0
  0
LINE
  8
┌▓È15
  6
CONTINUOUS
 10
452.5
 20
11687.5
 11
572.5
 21
11567.5
  0
LINE
  8
┌▓È15
  6
CONTINUOUS
 10
452.5
 20
11827.5
 11
572.5
 21
11707.5
  0
LINE
  8
┌▓È15
  6
CONTINUOUS
 10
452.5
 20
11970.0
 11
572.5
 21
11850.0
  0
LINE
  8
┌▓È15
  6
CONTINUOUS
 10
452.5
 20
12110.0
 11
572.5
 21
11990.0
  0
LINE
  8
┌▓È15
  6
CONTINUOUS
 10
452.5
 20
12252.5
 11
572.5
 21
12132.5
  0
LINE
  8
┌▓È15
  6
CONTINUOUS
 10
452.5
 20
12392.5
 11
572.5
 21
12272.5
  0
LINE
  8
┌▓È15
  6
CONTINUOUS
 10
452.5
 20
12535.0
 11
572.5
 21
12412.5
  0
LINE
  8
┌▓È15
  6
CONTINUOUS
 10
452.5
 20
12675.0
 11
572.5
 21
12555.0
  0
LINE
  8
┌▓È15
  6
CONTINUOUS
 10
452.5
 20
12817.5
 11
572.5
 21
12697.5
  0
LINE
  8
┌▓È15
  6
CONTINUOUS
 10
452.5
 20
12957.5
 11
572.5
 21
12837.5
  0
LINE
  8
┌▓È15
  6
CONTINUOUS
 10
452.5
 20
13097.5
 11
572.5
 21
12977.5
  0
LINE
  8
┌▓È15
  6
CONTINUOUS
 10
452.5
 20
13240.0
 11
572.5
 21
13120.0
  0
LINE
  8
┌▓È15
  6
CONTINUOUS
 10
452.5
 20
13380.0
 11
572.5
 21
13260.0
  0
LINE
  8
┌▓È15
  6
CONTINUOUS
 10
452.5
 20
13522.5
 11
572.5
 21
13402.5
  0
LINE
  8
┌▓È15
  6
CONTINUOUS
 10
452.5
 20
13662.5
 11
572.5
 21
13542.5
  0
LINE
  8
┌▓È15
  6
CONTINUOUS
 10
452.5
 20
13805.0
 11
572.5
 21
13685.0
  0
LINE
  8
┌▓È15
  6
CONTINUOUS
 10
452.5
 20
13945.0
 11
572.5
 21
13825.0
  0
LINE
  8
┌▓È15
  6
CONTINUOUS
 10
452.5
 20
14087.5
 11
572.5
 21
13967.5
  0
LINE
  8
┌▓È15
  6
CONTINUOUS
 10
452.5
 20
14227.5
 11
572.5
 21
14107.5
  0
LINE
  8
┌▓È15
  6
CONTINUOUS
 10
452.5
 20
14370.0
 11
572.5
 21
14250.0
  0
LINE
  8
┌▓È15
  6
CONTINUOUS
 10
452.5
 20
14510.0
 11
572.5
 21
14390.0
  0
LINE
  8
┌▓È15
  6
CONTINUOUS
 10
452.5
 20
14652.5
 11
572.5
 21
14532.5
  0
LINE
  8
┌▓È15
  6
CONTINUOUS
 10
452.5
 20
14792.5
 11
572.5
 21
14672.5
  0
LINE
  8
┌▓È15
  6
CONTINUOUS
 10
452.5
 20
14935.0
 11
572.5
 21
14815.0
  0
LINE
  8
┌▓È15
  6
CONTINUOUS
 10
452.5
 20
15075.0
 11
572.5
 21
14955.0
  0
LINE
  8
┌▓È15
  6
CONTINUOUS
 10
452.5
 20
15217.5
 11
572.5
 21
15097.5
  0
LINE
  8
┌▓È15
  6
CONTINUOUS
 10
452.5
 20
15357.5
 11
572.5
 21
15237.5
  0
LINE
  8
┌▓È15
  6
CONTINUOUS
 10
452.5
 20
15500.0
 11
572.5
 21
15380.0
  0
LINE
  8
┌▓È15
  6
CONTINUOUS
 10
452.5
 20
15640.0
 11
572.5
 21
15520.0
  0
LINE
  8
┌▓È15
  6
CONTINUOUS
 10
452.5
 20
15782.5
 11
572.5
 21
15662.5
  0
LINE
  8
┌▓È15
  6
CONTINUOUS
 10
452.5
 20
15922.5
 11
572.5
 21
15802.5
  0
LINE
  8
┌▓È15
  6
CONTINUOUS
 10
452.5
 20
16065.0
 11
572.5
 21
15945.0
  0
LINE
  8
┌▓È15
  6
CONTINUOUS
 10
452.5
 20
16205.0
 11
572.5
 21
16085.0
  0
LINE
  8
┌▓È15
  6
CONTINUOUS
 10
505.0
 20
16295.0
 11
572.5
 21
16227.5
  0
ENDBLK
  0
BLOCK
  2
*HAT_0003
 70
    65
 10
0.0
 20
0.0
  0
LINE
  8
┌▓È15
  6
CONTINUOUS
 10
-1177.5
 20
10775.0
 11
-1072.5
 21
10670.0
  0
LINE
  8
┌▓È15
  6
CONTINUOUS
 10
-1055.0
 20
10795.0
 11
-930.0
 21
10670.0
  0
LINE
  8
┌▓È15
  6
CONTINUOUS
 10
-915.0
 20
10795.0
 11
-790.0
 21
10670.0
  0
LINE
  8
┌▓È15
  6
CONTINUOUS
 10
-772.5
 20
10795.0
 11
-647.5
 21
10670.0
  0
LINE
  8
┌▓È15
  6
CONTINUOUS
 10
-632.5
 20
10795.0
 11
-507.5
 21
10670.0
  0
LINE
  8
┌▓È15
  6
CONTINUOUS
 10
-490.0
 20
10795.0
 11
-365.0
 21
10670.0
  0
LINE
  8
┌▓È15
  6
CONTINUOUS
 10
-350.0
 20
10795.0
 11
-225.0
 21
10670.0
  0
LINE
  8
┌▓È15
  6
CONTINUOUS
 10
-207.5
 20
10795.0
 11
-82.5
 21
10670.0
  0
LINE
  8
┌▓È15
  6
CONTINUOUS
 10
-67.5
 20
10795.0
 11
57.5
 21
10670.0
  0
LINE
  8
┌▓È15
  6
CONTINUOUS
 10
75.0
 20
10795.0
 11
200.0
 21
10670.0
  0
LINE
  8
┌▓È15
  6
CONTINUOUS
 10
215.0
 20
10795.0
 11
340.0
 21
10670.0
  0
LINE
  8
┌▓È15
  6
CONTINUOUS
 10
357.5
 20
10795.0
 11
452.5
 21
10697.5
  0
ENDBLK
  0
BLOCK
  2
*HAT_0004
 70
    65
 10
0.0
 20
0.0
  0
LINE
  8
┌▓È15
  6
CONTINUOUS
 10
-1177.5
 20
9362.5
 11
-1107.5
 21
9295.0
  0
LINE
  8
┌▓È15
  6
CONTINUOUS
 10
-1092.5
 20
9420.0
 11
-967.5
 21
9295.0
  0
LINE
  8
┌▓È15
  6
CONTINUOUS
 10
-952.5
 20
9420.0
 11
-827.5
 21
9295.0
  0
LINE
  8
┌▓È15
  6
CONTINUOUS
 10
-810.0
 20
9420.0
 11
-685.0
 21
9295.0
  0
LINE
  8
┌▓È15
  6
CONTINUOUS
 10
-670.0
 20
9420.0
 11
-545.0
 21
9295.0
  0
LINE
  8
┌▓È15
  6
CONTINUOUS
 10
-527.5
 20
9420.0
 11
-402.5
 21
9295.0
  0
LINE
  8
┌▓È15
  6
CONTINUOUS
 10
-387.5
 20
9420.0
 11
-262.5
 21
9295.0
  0
LINE
  8
┌▓È15
  6
CONTINUOUS
 10
-245.0
 20
9420.0
 11
-120.0
 21
9295.0
  0
LINE
  8
┌▓È15
  6
CONTINUOUS
 10
-105.0
 20
9420.0
 11
20.0
 21
9295.0
  0
LINE
  8
┌▓È15
  6
CONTINUOUS
 10
37.5
 20
9420.0
 11
162.5
 21
9295.0
  0
LINE
  8
┌▓È15
  6
CONTINUOUS
 10
177.5
 20
9420.0
 11
302.5
 21
9295.0
  0
LINE
  8
┌▓È15
  6
CONTINUOUS
 10
320.0
 20
9420.0
 11
445.0
 21
9295.0
  0
ENDBLK
  0
BLOCK
  2
*HAT_0005
 70
    65
 10
0.0
 20
0.0
  0
LINE
  8
┌▓È15
  6
CONTINUOUS
 10
-1427.5
 20
12155.0
 11
-1317.5
 21
12045.0
  0
LINE
  8
┌▓È15
  6
CONTINUOUS
 10
-1300.0
 20
12170.0
 11
-1175.0
 21
12045.0
  0
LINE
  8
┌▓È15
  6
CONTINUOUS
 10
-1160.0
 20
12170.0
 11
-1035.0
 21
12045.0
  0
LINE
  8
┌▓È15
  6
CONTINUOUS
 10
-1017.5
 20
12170.0
 11
-892.5
 21
12045.0
  0
LINE
  8
┌▓È15
  6
CONTINUOUS
 10
-877.5
 20
12170.0
 11
-752.5
 21
12045.0
  0
LINE
  8
┌▓È15
  6
CONTINUOUS
 10
-735.0
 20
12170.0
 11
-610.0
 21
12045.0
  0
LINE
  8
┌▓È15
  6
CONTINUOUS
 10
-595.0
 20
12170.0
 11
-470.0
 21
12045.0
  0
LINE
  8
┌▓È15
  6
CONTINUOUS
 10
-452.5
 20
12170.0
 11
-327.5
 21
12045.0
  0
LINE
  8
┌▓È15
  6
CONTINUOUS
 10
-312.5
 20
12170.0
 11
-187.5
 21
12045.0
  0
LINE
  8
┌▓È15
  6
CONTINUOUS
 10
-170.0
 20
12170.0
 11
-47.5
 21
12045.0
  0
LINE
  8
┌▓È15
  6
CONTINUOUS
 10
-30.0
 20
12170.0
 11
95.0
 21
12045.0
  0
LINE
  8
┌▓È15
  6
CONTINUOUS
 10
110.0
 20
12170.0
 11
235.0
 21
12045.0
  0
LINE
  8
┌▓È15
  6
CONTINUOUS
 10
252.5
 20
12170.0
 11
377.5
 21
12045.0
  0
LINE
  8
┌▓È15
  6
CONTINUOUS
 10
392.5
 20
12170.0
 11
452.5
 21
12110.0
  0
ENDBLK
  0
BLOCK
  2
*HAT_0006
 70
    65
 10
0.0
 20
0.0
  0
LINE
  8
┌▓È15
  6
CONTINUOUS
 10
-1427.5
 20
13425.0
 11
-1422.5
 21
13420.0
  0
LINE
  8
┌▓È15
  6
CONTINUOUS
 10
-1405.0
 20
13545.0
 11
-1280.0
 21
13420.0
  0
LINE
  8
┌▓È15
  6
CONTINUOUS
 10
-1265.0
 20
13545.0
 11
-1140.0
 21
13420.0
  0
LINE
  8
┌▓È15
  6
CONTINUOUS
 10
-1122.5
 20
13545.0
 11
-997.5
 21
13420.0
  0
LINE
  8
┌▓È15
  6
CONTINUOUS
 10
-982.5
 20
13545.0
 11
-857.5
 21
13420.0
  0
LINE
  8
┌▓È15
  6
CONTINUOUS
 10
-840.0
 20
13545.0
 11
-715.0
 21
13420.0
  0
LINE
  8
┌▓È15
  6
CONTINUOUS
 10
-700.0
 20
13545.0
 11
-575.0
 21
13420.0
  0
LINE
  8
┌▓È15
  6
CONTINUOUS
 10
-557.5
 20
13545.0
 11
-432.5
 21
13420.0
  0
LINE
  8
┌▓È15
  6
CONTINUOUS
 10
-417.5
 20
13545.0
 11
-292.5
 21
13420.0
  0
LINE
  8
┌▓È15
  6
CONTINUOUS
 10
-275.0
 20
13545.0
 11
-150.0
 21
13420.0
  0
LINE
  8
┌▓È15
  6
CONTINUOUS
 10
-135.0
 20
13545.0
 11
-10.0
 21
13420.0
  0
LINE
  8
┌▓È15
  6
CONTINUOUS
 10
7.5
 20
13545.0
 11
132.5
 21
13420.0
  0
LINE
  8
┌▓È15
  6
CONTINUOUS
 10
147.5
 20
13545.0
 11
272.5
 21
13420.0
  0
LINE
  8
┌▓È15
  6
CONTINUOUS
 10
290.0
 20
13545.0
 11
415.0
 21
13420.0
  0
LINE
  8
┌▓È15
  6
CONTINUOUS
 10
430.0
 20
13545.0
 11
452.5
 21
13522.5
  0
ENDBLK
  0
BLOCK
  2
*HAT_0007
 70
    65
 10
0.0
 20
0.0
  0
LINE
  8
┌▓È15
  6
CONTINUOUS
 10
2007.5
 20
9427.5
 11
2127.5
 21
9307.5
  0
LINE
  8
┌▓È15
  6
CONTINUOUS
 10
2007.5
 20
9567.5
 11
2127.5
 21
9447.5
  0
LINE
  8
┌▓È15
  6
CONTINUOUS
 10
2007.5
 20
9710.0
 11
2127.5
 21
9590.0
  0
LINE
  8
┌▓È15
  6
CONTINUOUS
 10
2007.5
 20
9850.0
 11
2127.5
 21
9730.0
  0
LINE
  8
┌▓È15
  6
CONTINUOUS
 10
2007.5
 20
9992.5
 11
2127.5
 21
9870.0
  0
LINE
  8
┌▓È15
  6
CONTINUOUS
 10
2007.5
 20
10132.5
 11
2127.5
 21
10012.5
  0
LINE
  8
┌▓È15
  6
CONTINUOUS
 10
2007.5
 20
10275.0
 11
2127.5
 21
10152.5
  0
LINE
  8
┌▓È15
  6
CONTINUOUS
 10
2007.5
 20
10415.0
 11
2127.5
 21
10295.0
  0
LINE
  8
┌▓È15
  6
CONTINUOUS
 10
2007.5
 20
10555.0
 11
2127.5
 21
10435.0
  0
LINE
  8
┌▓È15
  6
CONTINUOUS
 10
2007.5
 20
10697.5
 11
2127.5
 21
10577.5
  0
LINE
  8
┌▓È15
  6
CONTINUOUS
 10
2007.5
 20
10837.5
 11
2127.5
 21
10717.5
  0
LINE
  8
┌▓È15
  6
CONTINUOUS
 10
2007.5
 20
10980.0
 11
2127.5
 21
10860.0
  0
LINE
  8
┌▓È15
  6
CONTINUOUS
 10
2007.5
 20
11120.0
 11
2127.5
 21
11000.0
  0
LINE
  8
┌▓È15
  6
CONTINUOUS
 10
2007.5
 20
11262.5
 11
2127.5
 21
11142.5
  0
LINE
  8
┌▓È15
  6
CONTINUOUS
 10
2007.5
 20
11402.5
 11
2127.5
 21
11282.5
  0
LINE
  8
┌▓È15
  6
CONTINUOUS
 10
2007.5
 20
11545.0
 11
2127.5
 21
11425.0
  0
LINE
  8
┌▓È15
  6
CONTINUOUS
 10
2007.5
 20
11685.0
 11
2127.5
 21
11565.0
  0
LINE
  8
┌▓È15
  6
CONTINUOUS
 10
2007.5
 20
11827.5
 11
2127.5
 21
11707.5
  0
LINE
  8
┌▓È15
  6
CONTINUOUS
 10
2007.5
 20
11967.5
 11
2127.5
 21
11847.5
  0
LINE
  8
┌▓È15
  6
CONTINUOUS
 10
2007.5
 20
12110.0
 11
2127.5
 21
11990.0
  0
LINE
  8
┌▓È15
  6
CONTINUOUS
 10
2007.5
 20
12250.0
 11
2127.5
 21
12130.0
  0
LINE
  8
┌▓È15
  6
CONTINUOUS
 10
2007.5
 20
12392.5
 11
2127.5
 21
12272.5
  0
LINE
  8
┌▓È15
  6
CONTINUOUS
 10
2007.5
 20
12532.5
 11
2127.5
 21
12412.5
  0
LINE
  8
┌▓È15
  6
CONTINUOUS
 10
2007.5
 20
12675.0
 11
2127.5
 21
12555.0
  0
LINE
  8
┌▓È15
  6
CONTINUOUS
 10
2007.5
 20
12815.0
 11
2127.5
 21
12695.0
  0
LINE
  8
┌▓È15
  6
CONTINUOUS
 10
2007.5
 20
12957.5
 11
2127.5
 21
12837.5
  0
LINE
  8
┌▓È15
  6
CONTINUOUS
 10
2007.5
 20
13097.5
 11
2127.5
 21
12977.5
  0
LINE
  8
┌▓È15
  6
CONTINUOUS
 10
2007.5
 20
13240.0
 11
2127.5
 21
13120.0
  0
LINE
  8
┌▓È15
  6
CONTINUOUS
 10
2007.5
 20
13380.0
 11
2127.5
 21
13260.0
  0
LINE
  8
┌▓È15
  6
CONTINUOUS
 10
2007.5
 20
13520.0
 11
2127.5
 21
13402.5
  0
LINE
  8
┌▓È15
  6
CONTINUOUS
 10
2007.5
 20
13662.5
 11
2127.5
 21
13542.5
  0
LINE
  8
┌▓È15
  6
CONTINUOUS
 10
2007.5
 20
13805.0
 11
2127.5
 21
13682.5
  0
LINE
  8
┌▓È15
  6
CONTINUOUS
 10
2007.5
 20
13945.0
 11
2127.5
 21
13825.0
  0
LINE
  8
┌▓È15
  6
CONTINUOUS
 10
2007.5
 20
14085.0
 11
2127.5
 21
13965.0
  0
LINE
  8
┌▓È15
  6
CONTINUOUS
 10
2007.5
 20
14227.5
 11
2127.5
 21
14107.5
  0
LINE
  8
┌▓È15
  6
CONTINUOUS
 10
2007.5
 20
14367.5
 11
2127.5
 21
14247.5
  0
LINE
  8
┌▓È15
  6
CONTINUOUS
 10
2007.5
 20
14510.0
 11
2127.5
 21
14390.0
  0
LINE
  8
┌▓È15
  6
CONTINUOUS
 10
2007.5
 20
14650.0
 11
2127.5
 21
14530.0
  0
LINE
  8
┌▓È15
  6
CONTINUOUS
 10
2007.5
 20
14792.5
 11
2127.5
 21
14672.5
  0
LINE
  8
┌▓È15
  6
CONTINUOUS
 10
2007.5
 20
14932.5
 11
2127.5
 21
14812.5
  0
LINE
  8
┌▓È15
  6
CONTINUOUS
 10
2007.5
 20
15075.0
 11
2127.5
 21
14955.0
  0
LINE
  8
┌▓È15
  6
CONTINUOUS
 10
2007.5
 20
15215.0
 11
2127.5
 21
15095.0
  0
LINE
  8
┌▓È15
  6
CONTINUOUS
 10
2007.5
 20
15357.5
 11
2127.5
 21
15237.5
  0
LINE
  8
┌▓È15
  6
CONTINUOUS
 10
2007.5
 20
15497.5
 11
2127.5
 21
15377.5
  0
LINE
  8
┌▓È15
  6
CONTINUOUS
 10
2007.5
 20
15640.0
 11
2127.5
 21
15520.0
  0
LINE
  8
┌▓È15
  6
CONTINUOUS
 10
2007.5
 20
15780.0
 11
2127.5
 21
15660.0
  0
LINE
  8
┌▓È15
  6
CONTINUOUS
 10
2007.5
 20
15922.5
 11
2127.5
 21
15802.5
  0
LINE
  8
┌▓È15
  6
CONTINUOUS
 10
2007.5
 20
16062.5
 11
2127.5
 21
15942.5
  0
LINE
  8
┌▓È15
  6
CONTINUOUS
 10
2007.5
 20
16205.0
 11
2127.5
 21
16085.0
  0
LINE
  8
┌▓È15
  6
CONTINUOUS
 10
2057.5
 20
16295.0
 11
2127.5
 21
16225.0
  0
ENDBLK
  0
BLOCK
  2
*HAT_0008
 70
    65
 10
0.0
 20
0.0
  0
LINE
  8
┌▓È15
  6
CONTINUOUS
 10
2127.5
 20
9307.5
 11
2140.0
 21
9295.0
  0
LINE
  8
┌▓È15
  6
CONTINUOUS
 10
2155.0
 20
9420.0
 11
2280.0
 21
9295.0
  0
LINE
  8
┌▓È15
  6
CONTINUOUS
 10
2297.5
 20
9420.0
 11
2422.5
 21
9295.0
  0
LINE
  8
┌▓È15
  6
CONTINUOUS
 10
2437.5
 20
9420.0
 11
2562.5
 21
9295.0
  0
LINE
  8
┌▓È15
  6
CONTINUOUS
 10
2577.5
 20
9420.0
 11
2702.5
 21
9295.0
  0
LINE
  8
┌▓È15
  6
CONTINUOUS
 10
2720.0
 20
9420.0
 11
2845.0
 21
9295.0
  0
LINE
  8
┌▓È15
  6
CONTINUOUS
 10
2860.0
 20
9420.0
 11
2985.0
 21
9295.0
  0
LINE
  8
┌▓È15
  6
CONTINUOUS
 10
3002.5
 20
9420.0
 11
3127.5
 21
9295.0
  0
LINE
  8
┌▓È15
  6
CONTINUOUS
 10
3142.5
 20
9420.0
 11
3267.5
 21
9295.0
  0
LINE
  8
┌▓È15
  6
CONTINUOUS
 10
3285.0
 20
9420.0
 11
3410.0
 21
9295.0
  0
LINE
  8
┌▓È15
  6
CONTINUOUS
 10
3425.0
 20
9420.0
 11
3550.0
 21
9295.0
  0
LINE
  8
┌▓È15
  6
CONTINUOUS
 10
3567.5
 20
9420.0
 11
3692.5
 21
9295.0
  0
LINE
  8
┌▓È15
  6
CONTINUOUS
 10
3707.5
 20
9420.0
 11
3757.5
 21
9370.0
  0
ENDBLK
  0
BLOCK
  2
*HAT_0009
 70
    65
 10
0.0
 20
0.0
  0
LINE
  8
┌▓È15
  6
CONTINUOUS
 10
2127.5
 20
10717.5
 11
2175.0
 21
10670.0
  0
LINE
  8
┌▓È15
  6
CONTINUOUS
 10
2192.5
 20
10795.0
 11
2317.5
 21
10670.0
  0
LINE
  8
┌▓È15
  6
CONTINUOUS
 10
2332.5
 20
10795.0
 11
2457.5
 21
10670.0
  0
LINE
  8
┌▓È15
  6
CONTINUOUS
 10
2475.0
 20
10795.0
 11
2600.0
 21
10670.0
  0
LINE
  8
┌▓È15
  6
CONTINUOUS
 10
2615.0
 20
10795.0
 11
2740.0
 21
10670.0
  0
LINE
  8
┌▓È15
  6
CONTINUOUS
 10
2757.5
 20
10795.0
 11
2882.5
 21
10670.0
  0
LINE
  8
┌▓È15
  6
CONTINUOUS
 10
2897.5
 20
10795.0
 11
3022.5
 21
10670.0
  0
LINE
  8
┌▓È15
  6
CONTINUOUS
 10
3040.0
 20
10795.0
 11
3165.0
 21
10670.0
  0
LINE
  8
┌▓È15
  6
CONTINUOUS
 10
3180.0
 20
10795.0
 11
3305.0
 21
10670.0
  0
LINE
  8
┌▓È15
  6
CONTINUOUS
 10
3322.5
 20
10795.0
 11
3447.5
 21
10670.0
  0
LINE
  8
┌▓È15
  6
CONTINUOUS
 10
3462.5
 20
10795.0
 11
3587.5
 21
10670.0
  0
LINE
  8
┌▓È15
  6
CONTINUOUS
 10
3605.0
 20
10795.0
 11
3730.0
 21
10670.0
  0
LINE
  8
┌▓È15
  6
CONTINUOUS
 10
3745.0
 20
10795.0
 11
3757.5
 21
10782.5
  0
ENDBLK
  0
BLOCK
  2
*HAT_0010
 70
    65
 10
0.0
 20
0.0
  0
LINE
  8
┌▓È15
  6
CONTINUOUS
 10
2127.5
 20
12130.0
 11
2212.5
 21
12045.0
  0
LINE
  8
┌▓È15
  6
CONTINUOUS
 10
2230.0
 20
12170.0
 11
2355.0
 21
12045.0
  0
LINE
  8
┌▓È15
  6
CONTINUOUS
 10
2370.0
 20
12170.0
 11
2495.0
 21
12045.0
  0
LINE
  8
┌▓È15
  6
CONTINUOUS
 10
2512.5
 20
12170.0
 11
2637.5
 21
12045.0
  0
LINE
  8
┌▓È15
  6
CONTINUOUS
 10
2652.5
 20
12170.0
 11
2777.5
 21
12045.0
  0
LINE
  8
┌▓È15
  6
CONTINUOUS
 10
2795.0
 20
12170.0
 11
2920.0
 21
12045.0
  0
LINE
  8
┌▓È15
  6
CONTINUOUS
 10
2935.0
 20
12170.0
 11
3060.0
 21
12045.0
  0
LINE
  8
┌▓È15
  6
CONTINUOUS
 10
3075.0
 20
12170.0
 11
3202.5
 21
12045.0
  0
LINE
  8
┌▓È15
  6
CONTINUOUS
 10
3217.5
 20
12170.0
 11
3342.5
 21
12045.0
  0
LINE
  8
┌▓È15
  6
CONTINUOUS
 10
3360.0
 20
12170.0
 11
3482.5
 21
12045.0
  0
LINE
  8
┌▓È15
  6
CONTINUOUS
 10
3500.0
 20
12170.0
 11
3625.0
 21
12045.0
  0
LINE
  8
┌▓È15
  6
CONTINUOUS
 10
3640.0
 20
12170.0
 11
3765.0
 21
12045.0
  0
LINE
  8
┌▓È15
  6
CONTINUOUS
 10
3782.5
 20
12170.0
 11
3907.5
 21
12045.0
  0
LINE
  8
┌▓È15
  6
CONTINUOUS
 10
3922.5
 20
12170.0
 11
4007.5
 21
12085.0
  0
ENDBLK
  0
BLOCK
  2
*HAT_0011
 70
    65
 10
0.0
 20
0.0
  0
LINE
  8
┌▓È15
  6
CONTINUOUS
 10
2127.5
 20
13542.5
 11
2250.0
 21
13420.0
  0
LINE
  8
┌▓È15
  6
CONTINUOUS
 10
2265.0
 20
13545.0
 11
2390.0
 21
13420.0
  0
LINE
  8
┌▓È15
  6
CONTINUOUS
 10
2407.5
 20
13545.0
 11
2532.5
 21
13420.0
  0
LINE
  8
┌▓È15
  6
CONTINUOUS
 10
2547.5
 20
13545.0
 11
2672.5
 21
13420.0
  0
LINE
  8
┌▓È15
  6
CONTINUOUS
 10
2690.0
 20
13545.0
 11
2815.0
 21
13420.0
  0
LINE
  8
┌▓È15
  6
CONTINUOUS
 10
2830.0
 20
13545.0
 11
2955.0
 21
13420.0
  0
LINE
  8
┌▓È15
  6
CONTINUOUS
 10
2972.5
 20
13545.0
 11
3097.5
 21
13420.0
  0
LINE
  8
┌▓È15
  6
CONTINUOUS
 10
3112.5
 20
13545.0
 11
3237.5
 21
13420.0
  0
LINE
  8
┌▓È15
  6
CONTINUOUS
 10
3255.0
 20
13545.0
 11
3380.0
 21
13420.0
  0
LINE
  8
┌▓È15
  6
CONTINUOUS
 10
3395.0
 20
13545.0
 11
3520.0
 21
13420.0
  0
LINE
  8
┌▓È15
  6
CONTINUOUS
 10
3537.5
 20
13545.0
 11
3662.5
 21
13420.0
  0
LINE
  8
┌▓È15
  6
CONTINUOUS
 10
3677.5
 20
13545.0
 11
3802.5
 21
13420.0
  0
LINE
  8
┌▓È15
  6
CONTINUOUS
 10
3820.0
 20
13545.0
 11
3945.0
 21
13420.0
  0
LINE
  8
┌▓È15
  6
CONTINUOUS
 10
3960.0
 20
13545.0
 11
4007.5
 21
13497.5
  0
ENDBLK
  0
BLOCK
  2
*HAT_0012
 70
    65
 10
0.0
 20
0.0
  0
LINE
  8
┌▓È15
  6
CONTINUOUS
 10
2127.5
 20
16225.0
 11
2207.5
 21
16145.0
  0
LINE
  8
┌▓È15
  6
CONTINUOUS
 10
2200.0
 20
16295.0
 11
2347.5
 21
16145.0
  0
LINE
  8
┌▓È15
  6
CONTINUOUS
 10
2340.0
 20
16295.0
 11
2490.0
 21
16145.0
  0
LINE
  8
┌▓È15
  6
CONTINUOUS
 10
2480.0
 20
16295.0
 11
2630.0
 21
16145.0
  0
LINE
  8
┌▓È15
  6
CONTINUOUS
 10
2622.5
 20
16295.0
 11
2772.5
 21
16145.0
  0
LINE
  8
┌▓È15
  6
CONTINUOUS
 10
2762.5
 20
16295.0
 11
2912.5
 21
16145.0
  0
LINE
  8
┌▓È15
  6
CONTINUOUS
 10
2905.0
 20
16295.0
 11
3055.0
 21
16145.0
  0
LINE
  8
┌▓È15
  6
CONTINUOUS
 10
3045.0
 20
16295.0
 11
3195.0
 21
16145.0
  0
LINE
  8
┌▓È15
  6
CONTINUOUS
 10
3187.5
 20
16295.0
 11
3337.5
 21
16145.0
  0
LINE
  8
┌▓È15
  6
CONTINUOUS
 10
3327.5
 20
16295.0
 11
3477.5
 21
16145.0
  0
LINE
  8
┌▓È15
  6
CONTINUOUS
 10
3470.0
 20
16295.0
 11
3620.0
 21
16145.0
  0
LINE
  8
┌▓È15
  6
CONTINUOUS
 10
3610.0
 20
16295.0
 11
3760.0
 21
16145.0
  0
LINE
  8
┌▓È15
  6
CONTINUOUS
 10
3752.5
 20
16295.0
 11
3902.5
 21
16145.0
  0
LINE
  8
┌▓È15
  6
CONTINUOUS
 10
3892.5
 20
16295.0
 11
4007.5
 21
16180.0
  0
ENDBLK
  0
BLOCK
  2
*HAT_0013
 70
    65
 10
0.0
 20
0.0
  0
LINE
  8
┌▓È15
  6
CONTINUOUS
 10
20875.0
 20
17910.0
 11
20915.0
 21
17950.0
  0
LINE
  8
┌▓È15
  6
CONTINUOUS
 10
20865.0
 20
17942.5
 11
20880.0
 21
17957.5
  0
ENDBLK
  0
BLOCK
  2
*GRP_0001
 70
    65
 10
0.0
 20
0.0
  0
LINE
  8
┌▓È1
  6
CONTINUOUS
 10
-27700.0
 20
19110.02975
 11
-27700.0
 21
18310.02975
  0
LINE
  8
┌▓È1
  6
CONTINUOUS
 10
-27700.0
 20
18310.02975
 11
-24700.0
 21
18310.02975
  0
LINE
  8
┌▓È1
  6
CONTINUOUS
 10
-24700.0
 20
18310.02975
 11
-24700.0
 21
19110.02975
  0
LINE
  8
┌▓È1
  6
CONTINUOUS
 10
-24700.0
 20
19110.02975
 11
-27700.0
 21
19110.02975
  0
ENDBLK
  0
BLOCK
  2
*GRP_0002
 70
    65
 10
0.0
 20
0.0
  0
LINE
  8
┌▓È1
  6
CONTINUOUS
 10
-26700.0
 20
615.92175
 11
-26700.0
 21
-184.07825
  0
LINE
  8
┌▓È1
  6
CONTINUOUS
 10
-26700.0
 20
-184.07825
 11
-25900.0
 21
-184.07825
  0
LINE
  8
┌▓È1
  6
CONTINUOUS
 10
-25900.0
 20
-184.07825
 11
-25900.0
 21
615.92175
  0
LINE
  8
┌▓È1
  6
CONTINUOUS
 10
-25900.0
 20
615.92175
 11
-26700.0
 21
615.92175
  0
ENDBLK
  0
BLOCK
  2
*DIM_0003
 70
    65
 10
0.0
 20
0.0
  0
LINE
  8
┌▓È16
 10
-27100.0
 20
2796.721
 11
-27700.0
 21
2796.721
  0
LINE
  8
┌▓È16
 10
-27100.0
 20
16296.721
 11
-27700.0
 21
16296.721
  0
LINE
  8
┌▓È16
 10
-27700.0
 20
2796.721
 11
-27700.0
 21
16296.721
  0
POINT
  8
┌▓È16
 10
-27700.0
 20
2796.721
  0
POINT
  8
┌▓È16
 10
-27700.0
 20
16296.721
  0
TEXT
  7
TextStyle03
  8
┌▓È16
  6
CONTINUOUS
 10
-27737.5
 20
9132.5
  1
2,700
 40
300.0
 50
90.0
 72
     5
 11
-27737.5
 21
9957.5
  0
ENDBLK
  0
BLOCK
  2
*GRP_0004
 70
    65
 10
0.0
 20
0.0
  0
LINE
  8
┌▓È4
 10
-25361.13125
 20
16171.721
 11
-25961.13125
 21
16171.721
  0
LINE
  8
┌▓È4
 10
-25236.13125
 20
16296.721
 11
-26086.13125
 21
16296.721
  0
LINE
  8
┌▓È4
 10
-25236.13125
 20
15921.721
 11
-26086.13125
 21
15921.721
  0
LINE
  8
┌▓È4
 10
-25236.13125
 20
15921.721
 11
-25236.13125
 21
16296.721
  0
LINE
  8
┌▓È4
 10
-25961.13125
 20
15921.721
 11
-25961.13125
 21
16171.721
  0
LINE
  8
┌▓È4
 10
-25361.13125
 20
15921.721
 11
-25361.13125
 21
16171.721
  0
LINE
  8
┌▓È4
 10
-26086.13125
 20
15921.721
 11
-26086.13125
 21
16296.721
  0
ENDBLK
  0
BLOCK
  2
*GRP_0005
 70
    65
 10
0.0
 20
0.0
  0
LINE
  8
┌▓È1
  6
CONTINUOUS
 10
1774.9625
 20
19110.02975
 11
1774.9625
 21
18310.02975
  0
LINE
  8
┌▓È1
  6
CONTINUOUS
 10
1774.9625
 20
18310.02975
 11
2574.9625
 21
18310.02975
  0
LINE
  8
┌▓È1
  6
CONTINUOUS
 10
2574.9625
 20
18310.02975
 11
2574.9625
 21
19110.02975
  0
LINE
  8
┌▓È1
  6
CONTINUOUS
 10
2574.9625
 20
19110.02975
 11
1774.9625
 21
19110.02975
  0
ENDBLK
  0
BLOCK
  2
*GRP_0006
 70
    65
 10
0.0
 20
0.0
  0
LINE
  8
┌▓È1
  6
CONTINUOUS
 10
1785.89925
 20
615.92175
 11
1785.89925
 21
-184.07825
  0
LINE
  8
┌▓È1
  6
CONTINUOUS
 10
1785.89925
 20
-184.07825
 11
2585.89925
 21
-184.07825
  0
LINE
  8
┌▓È1
  6
CONTINUOUS
 10
2585.89925
 20
-184.07825
 11
2585.89925
 21
615.92175
  0
LINE
  8
┌▓È1
  6
CONTINUOUS
 10
2585.89925
 20
615.92175
 11
1785.89925
 21
615.92175
  0
ENDBLK
  0
BLOCK
  2
*GRP_0007
 70
    65
 10
0.0
 20
0.0
  0
LINE
  8
┌▓È5
 10
19725.46075
 20
6733.01475
 11
22238.3875
 21
6733.01475
  0
LINE
  8
┌▓È5
 10
21804.857
 20
6983.31425
 11
22238.3875
 21
6733.01475
  0
ENDBLK
  0
BLOCK
  2
*GRP_0008
 70
    65
 10
0.0
 20
0.0
  0
POINT
  8
┌▓È15
 10
-2757.91425
 20
-14106.558
  0
POLYLINE
  8
┌▓È15
 66
     1
  0
VERTEX
  8
┌▓È15
 10
-2757.91425
 20
-14106.558
  0
VERTEX
  8
┌▓È15
 10
-3416.28075
 20
-15246.8825
  0
VERTEX
  8
┌▓È15
 10
-2988.3135
 20
-15246.8825
  0
SEQEND
  0
ENDBLK
  0
BLOCK
  2
*GRP_0009
 70
    65
 10
0.0
 20
0.0
  0
LINE
  8
┌▓È5
 10
23640.89925
 20
-14406.55825
 11
23640.89925
 21
-10726.55825
  0
LINE
  8
┌▓È5
 10
23760.89925
 20
-9406.55825
 11
23760.89925
 21
-14406.55825
  0
LINE
  8
┌▓È5
 10
14760.89925
 20
-10226.5585
 11
23760.89925
 21
-10226.5585
  0
LINE
  8
┌▓È5
 10
14760.89925
 20
-10106.5585
 11
23760.89925
 21
-10106.5585
  0
LINE
  8
┌▓È5
 10
14760.89925
 20
-9406.55825
 11
14760.89925
 21
-14406.55825
  0
LINE
  8
┌▓È5
 10
14760.89925
 20
-9406.55825
 11
23760.89925
 21
-9406.55825
  0
LINE
  8
┌▓È5
 10
18390.8985
 20
-14406.55825
 11
18390.8985
 21
-10726.55825
  0
LINE
  8
┌▓È5
 10
21630.89875
 20
-10726.55825
 11
21630.89875
 21
-14406.55825
  0
LINE
  8
┌▓È5
 10
18390.8985
 20
-13906.55825
 11
21630.89875
 21
-13906.55825
  0
LINE
  8
┌▓È5
 10
16760.899
 20
-14406.55825
 11
16760.899
 21
-10226.5585
  0
LINE
  8
┌▓È5
  6
DASHED
 10
14880.89925
 20
-14406.55825
 11
14880.89925
 21
-10226.5585
  0
LINE
  8
┌▓È5
  6
DASHED
 10
16640.899
 20
-14406.55825
 11
16640.899
 21
-10226.5585
  0
LINE
  8
┌▓È5
 10
14760.89925
 20
-13906.55825
 11
16760.899
 21
-13906.55825
  0
LINE
  8
┌▓È5
 10
23760.89925
 20
-10726.55825
 11
16760.899
 21
-10726.55825
  0
LINE
  8
┌▓È5
 10
14760.89925
 20
-12179.89175
 11
16760.899
 21
-12179.89175
  0
LINE
  8
┌▓È5
 10
14760.89925
 20
-11203.225
 11
16760.899
 21
-11203.225
  0
ARC
  8
┌▓È6
 10
21260.898616
 20
-10856.558996
 40
250.0
 50
270.0
 51
360.0
  0
ARC
  8
┌▓È6
 10
23260.898821
 20
-10181.558592
 40
250.0
 50
270.0
 51
360.0
  0
LINE
  8
┌▓È6
 10
23510.899
 20
-10181.5585
 11
23510.899
 21
-10101.55825
  0
LINE
  8
┌▓È6
 10
23260.899
 20
-10431.5585
 11
21710.899
 21
-10431.5585
  0
LINE
  8
┌▓È6
 10
21510.89875
 20
-10856.5585
 11
21510.89875
 21
-10626.5585
  0
ARC
  8
┌▓È6
 10
21713.24539
 20
-10634.029746
 40
202.484373
 50
90.663921
 51
177.885559
  0
LINE
  8
┌▓È6
  6
DOT
 10
18510.8985
 20
-10726.55825
 11
18510.8985
 21
-10106.5585
  0
ARC
  8
┌▓È6
 10
18760.898366
 20
-10856.558996
 40
250.0
 50
180.0
 51
270.0
  0
LINE
  8
┌▓È6
 10
18510.8985
 20
-10856.5585
 11
18510.8985
 21
-10726.55825
  0
LINE
  8
┌▓È6
 10
18760.8985
 20
-11106.5585
 11
21260.89875
 21
-11106.5585
  0
POLYLINE
  8
┌▓È6
  6
DASHDOT
 66
     1
  0
VERTEX
  8
┌▓È6
 10
21630.89875
 20
-10726.55825
  0
VERTEX
  8
┌▓È6
 10
18390.8985
 20
-12316.55825
  0
VERTEX
  8
┌▓È6
 10
21630.89875
 20
-13906.55825
  0
SEQEND
  0
POLYLINE
  8
┌▓È6
 66
     1
 70
     1
  0
VERTEX
  8
┌▓È6
 10
15957.484
 20
-10315.16425
  0
VERTEX
  8
┌▓È6
 10
15457.48375
 20
-10315.16425
  0
VERTEX
  8
┌▓È6
 10
15457.48375
 20
-10465.16425
  0
VERTEX
  8
┌▓È6
 10
15957.484
 20
-10465.16425
  0
SEQEND
  0
POLYLINE
  8
┌▓È6
 66
     1
 70
     1
  0
VERTEX
  8
┌▓È6
 10
15957.484
 20
-12299.5775
  0
VERTEX
  8
┌▓È6
 10
15457.48375
 20
-12299.5775
  0
VERTEX
  8
┌▓È6
 10
15457.48375
 20
-12449.5775
  0
VERTEX
  8
┌▓È6
 10
15957.484
 20
-12449.5775
  0
SEQEND
  0
POLYLINE
  8
┌▓È6
 66
     1
 70
     1
  0
VERTEX
  8
┌▓È6
 10
15957.484
 20
-11322.91075
  0
VERTEX
  8
┌▓È6
 10
15457.48375
 20
-11322.91075
  0
VERTEX
  8
┌▓È6
 10
15457.48375
 20
-11472.91075
  0
VERTEX
  8
┌▓È6
 10
15957.484
 20
-11472.91075
  0
SEQEND
  0
LINE
  8
┌▓È6
  6
DOT
 10
18510.8985
 20
-14406.55825
 11
18510.8985
 21
-10726.55825
  0
LINE
  8
┌▓È6
  6
DOT
 10
21510.89875
 20
-10726.55825
 11
21510.89875
 21
-14406.55825
  0
ENDBLK
  0
BLOCK
  2
*GRP_0010
 70
    65
 10
0.0
 20
0.0
  0
LINE
  8
┌▓È5
 10
-10193.86875
 20
-14406.55775
 11
-10193.86875
 21
-10726.558
  0
LINE
  8
┌▓È5
 10
-10313.86875
 20
-9406.558
 11
-10313.86875
 21
-14406.55775
  0
LINE
  8
┌▓È5
 10
-3683.86875
 20
-14406.55775
 11
-3683.86875
 21
-10726.558
  0
LINE
  8
┌▓È5
 10
-3563.86875
 20
-9406.558
 11
-3563.86875
 21
-14406.55775
  0
LINE
  8
┌▓È5
 10
-10313.86875
 20
-10226.558
 11
-3563.86875
 21
-10226.558
  0
LINE
  8
┌▓È5
 10
-10313.86875
 20
-10106.558
 11
-3563.86875
 21
-10106.558
  0
LINE
  8
┌▓È5
 10
-3563.86875
 20
-10726.558
 11
-10313.86875
 21
-10726.558
  0
LINE
  8
┌▓È5
 10
-10313.86875
 20
-9406.558
 11
-3563.86875
 21
-9406.558
  0
LINE
  8
┌▓È5
 10
-6938.86875
 20
-10104.20425
 11
-6938.86875
 21
-10726.558
  0
ENDBLK
  0
BLOCK
  2
*GRP_0011
 70
    65
 10
0.0
 20
0.0
  0
POINT
  8
┌▓È15
 10
7283.261
 20
-13691.363
  0
POLYLINE
  8
┌▓È15
 66
     1
  0
VERTEX
  8
┌▓È15
 10
7283.261
 20
-13691.363
  0
VERTEX
  8
┌▓È15
 10
6385.1815
 20
-15246.8825
  0
VERTEX
  8
┌▓È15
 10
6813.14875
 20
-15246.8825
  0
SEQEND
  0
ENDBLK
  0
BLOCK
  2
*GRP_0012
 70
    65
 10
0.0
 20
0.0
  0
LINE
  8
┌▓È5
 10
-20828.1045
 20
6433.01475
 11
-22121.50075
 21
6433.01475
  0
LINE
  8
┌▓È5
 10
-21687.97
 20
6683.31425
 11
-22121.50075
 21
6433.01475
  0
ENDBLK
  0
BLOCK
  2
*GRP_0013
 70
    65
 10
0.0
 20
0.0
  0
ARC
  8
┌▓È5
  6
DOT
 10
-18175.00012
 20
6976.721
 40
3000.004167
 50
185.710585
 51
270.000002
  0
LINE
  8
┌▓È5
  6
DOT
 10
-18175.0
 20
6676.721
 11
-21175.0
 21
6676.721
  0
LINE
  8
┌▓È5
  6
DOT
 10
-18175.0
 20
3976.721
 11
-18175.0
 21
6676.721
  0
ENDBLK
  0
BLOCK
  2
*GRP_0015
 70
    65
 10
0.0
 20
0.0
  0
POINT
  8
┌▓È15
 10
21353.12125
 20
17809.3375
  0
POLYLINE
  8
┌▓È15
 66
     1
  0
VERTEX
  8
┌▓È15
 10
21353.12125
 20
17809.3375
  0
VERTEX
  8
┌▓È15
 10
21606.67625
 20
17370.1675
  0
VERTEX
  8
┌▓È15
 10
22098.80675
 20
17370.1675
  0
SEQEND
  0
ENDBLK
  0
BLOCK
  2
*GRP_0016
 70
    65
 10
0.0
 20
0.0
  0
POINT
  8
┌▓È15
 10
21438.83575
 20
18026.42425
  0
POLYLINE
  8
┌▓È15
 66
     1
  0
VERTEX
  8
┌▓È15
 10
21438.83575
 20
18026.42425
  0
VERTEX
  8
┌▓È15
 10
21188.703
 20
18459.66675
  0
VERTEX
  8
┌▓È15
 10
20397.10225
 20
18459.66675
  0
SEQEND
  0
ENDBLK
  0
BLOCK
  2
*GRP_0017
 70
    65
 10
0.0
 20
0.0
  0
POINT
  8
┌▓È15
 10
20863.95675
 20
17954.85875
  0
POLYLINE
  8
┌▓È15
 66
     1
  0
VERTEX
  8
┌▓È15
 10
20863.95675
 20
17954.85875
  0
VERTEX
  8
┌▓È15
 10
20546.87475
 20
17405.65675
  0
VERTEX
  8
┌▓È15
 10
20269.8685
 20
17405.65675
  0
SEQEND
  0
ENDBLK
  0
BLOCK
  2
*DIM_0019
 70
    65
 10
0.0
 20
0.0
  0
LINE
  8
┌▓È16
 10
-26416.83175
 20
-18194.21725
 11
-26416.83175
 21
-18794.21725
  0
LINE
  8
┌▓È16
 10
-25566.83175
 20
-18194.21725
 11
-25566.83175
 21
-18794.21725
  0
LINE
  8
┌▓È16
 10
-26416.83175
 20
-18794.21725
 11
-25566.83175
 21
-18794.21725
  0
POINT
  8
┌▓È16
 10
-26416.83175
 20
-18794.21725
  0
POINT
  8
┌▓È16
 10
-25566.83175
 20
-18794.21725
  0
TEXT
  7
TextStyle03
  8
┌▓È16
  6
CONTINUOUS
 10
-26236.25
 20
-18757.5
  1
170
 40
300.0
 72
     5
 11
-25748.75
 21
-18757.5
  0
ENDBLK
  0
BLOCK
  2
*DIM_0020
 70
    65
 10
0.0
 20
0.0
  0
LINE
  8
┌▓È16
 10
-24316.83175
 20
-18194.21725
 11
-24316.83175
 21
-18794.21725
  0
LINE
  8
┌▓È16
 10
-25566.83175
 20
-18794.21725
 11
-24316.83175
 21
-18794.21725
  0
POINT
  8
┌▓È16
 10
-24316.83175
 20
-18794.21725
  0
TEXT
  7
TextStyle03
  8
┌▓È16
  6
CONTINUOUS
 10
-25186.25
 20
-18757.5
  1
250
 40
300.0
 72
     5
 11
-24698.75
 21
-18757.5
  0
ENDBLK
  0
BLOCK
  2
*DIM_0021
 70
    65
 10
0.0
 20
0.0
  0
LINE
  8
┌▓È16
 10
-23816.83175
 20
-18194.21725
 11
-23816.83175
 21
-18794.21725
  0
LINE
  8
┌▓È16
 10
-24316.83175
 20
-18794.21725
 11
-23816.83175
 21
-18794.21725
  0
POINT
  8
┌▓È16
 10
-23816.83175
 20
-18794.21725
  0
TEXT
  7
TextStyle03
  8
┌▓È16
  6
CONTINUOUS
 10
-24311.25
 20
-18757.5
  1
100
 40
300.0
 72
     5
 11
-23823.75
 21
-18757.5
  0
ENDBLK
  0
BLOCK
  2
*DIM_0022
 70
    65
 10
0.0
 20
0.0
  0
LINE
  8
┌▓È16
 10
-23316.83175
 20
-18194.21725
 11
-23316.83175
 21
-18794.21725
  0
LINE
  8
┌▓È16
 10
-23816.83175
 20
-18794.21725
 11
-23316.83175
 21
-18794.21725
  0
POINT
  8
┌▓È16
 10
-23316.83175
 20
-18794.21725
  0
TEXT
  7
TextStyle03
  8
┌▓È16
  6
CONTINUOUS
 10
-23811.25
 20
-18757.5
  1
100
 40
300.0
 72
     5
 11
-23323.75
 21
-18757.5
  0
ENDBLK
  0
ENDSEC
  0
SECTION
  2
ENTITIES
  0
POLYLINE
  8
┌▓È1
  6
CONTINUOUS
 66
     1
 70
     1
  0
VERTEX
  8
┌▓È1
 10
-29700.0
 20
-21000.0
  0
VERTEX
  8
┌▓È1
 10
29700.0
 20
-21000.0
  0
VERTEX
  8
┌▓È1
 10
29700.0
 20
21000.0
  0
VERTEX
  8
┌▓È1
 10
-29700.0
 20
21000.0
  0
SEQEND
  0
INSERT
  2
*GRP_0001
  8
┌▓È1
 10
0.0
 20
0.0
  0
INSERT
  2
*GRP_0002
  8
┌▓È1
 10
0.0
 20
0.0
  0
INSERT
  2
*GRP_0005
  8
┌▓È1
 10
0.0
 20
0.0
  0
INSERT
  2
*GRP_0006
  8
┌▓È1
 10
0.0
 20
0.0
  0
LINE
  8
┌▓È2
 10
-26700.0
 20
17796.721
 11
-26700.0
 21
1796.721
  0
LINE
  8
┌▓È2
 10
-26700.0
 20
-15298.46075
 11
-26700.0
 21
-184.07825
  0
LINE
  8
┌▓È2
 10
-17930.0
 20
10421.721
 11
-13430.0
 21
9421.72175
  0
LINE
  8
┌▓È2
 10
-13511.45375
 20
10421.721
 11
-17930.0
 21
9421.72175
  0
LINE
  8
┌▓È2
 10
-305.0
 20
7676.721
 11
575.0
 21
2796.721
  0
LINE
  8
┌▓È2
 10
-305.0
 20
2796.721
 11
575.0
 21
7676.721
  0
LINE
  8
┌▓È2
 10
800.0
 20
17796.721
 11
800.0
 21
1796.721
  0
LINE
  8
┌▓È2
 10
26679.2195
 20
7676.721
 11
27559.2195
 21
2796.721
  0
LINE
  8
┌▓È2
 10
26679.2195
 20
2796.721
 11
27559.2195
 21
7676.721
  0
LINE
  8
┌▓È2
 10
2009.2195
 20
7676.30175
 11
2889.2195
 21
2796.721
  0
LINE
  8
┌▓È2
 10
2009.2195
 20
2796.721
 11
2889.2195
 21
7676.30175
  0
LINE
  8
┌▓È2
 10
1784.2195
 20
17796.721
 11
1784.2195
 21
1796.721
  0
LINE
  8
┌▓È2
 10
27784.2195
 20
17796.721
 11
27784.2195
 21
1796.721
  0
LINE
  8
┌▓È2
 10
-693.86875
 20
-9526.558
 11
186.13125
 21
-14406.558
  0
LINE
  8
┌▓È2
 10
-693.86875
 20
-14406.558
 11
186.13125
 21
-9526.558
  0
LINE
  8
┌▓È2
 10
19535.89925
 20
-5156.558
 11
21785.89925
 21
-1406.558
  0
LINE
  8
┌▓È2
 10
21785.89925
 20
-1406.558
 11
24035.89925
 21
-5156.558
  0
LINE
  8
┌▓È2
 10
27785.89925
 20
593.442
 11
27785.89925
 21
-15298.46075
  0
LINE
  8
┌▓È2
 10
1785.89925
 20
-15298.46075
 11
1785.89925
 21
-184.07825
  0
LINE
  8
┌▓È2
 10
800.0
 20
-15298.46075
 11
800.0
 21
-184.07825
  0
LINE
  8
┌▓È3
 10
-26036.13125
 20
7296.721
 11
-26511.13125
 21
7296.721
  0
LINE
  8
┌▓È3
 10
-26036.13125
 20
7171.721
 11
-26036.13125
 21
7296.721
  0
LINE
  8
┌▓È3
 10
-26036.13125
 20
7171.721
 11
-26086.13125
 21
7171.721
  0
LINE
  8
┌▓È3
 10
-26086.13125
 20
7171.721
 11
-26086.13125
 21
2796.721
  0
LINE
  8
┌▓È3
 10
-26511.13125
 20
14796.721
 11
-26036.13125
 21
14796.721
  0
LINE
  8
┌▓È3
 10
-26036.13125
 20
14796.721
 11
-26036.13125
 21
14921.721
  0
LINE
  8
┌▓È3
 10
-26936.13125
 20
6990.471
 11
-26861.13125
 21
6990.471
  0
LINE
  8
┌▓È3
 10
-26861.13125
 20
6990.471
 11
-26861.13125
 21
2796.721
  0
LINE
  8
┌▓È3
 10
-26761.13125
 20
14871.721
 11
-26761.13125
 21
14946.721
  0
LINE
  8
┌▓È3
 10
-26761.13125
 20
14946.721
 11
-26861.13125
 21
14946.721
  0
LINE
  8
┌▓È3
 10
-26861.13125
 20
16796.721
 11
-26861.13125
 21
14946.721
  0
LINE
  8
┌▓È3
 10
-26086.13125
 20
2796.721
 11
575.0
 21
2796.721
  0
LINE
  8
┌▓È3
 10
-26036.13125
 20
15921.721
 11
-26086.13125
 21
15921.721
  0
LINE
  8
┌▓È3
 10
-26086.13125
 20
15921.721
 11
-26086.13125
 21
16296.721
  0
LINE
  8
┌▓È3
 10
-26086.13125
 20
15921.721
 11
-26086.13125
 21
16246.71975
  0
LINE
  8
┌▓È3
 10
-26086.13125
 20
15921.721
 11
-26086.13125
 21
14921.721
  0
LINE
  8
┌▓È3
 10
-26036.13125
 20
14921.721
 11
-26086.13125
 21
14921.721
  0
LINE
  8
┌▓È3
 10
575.0
 20
16296.721
 11
575.0
 21
2796.721
  0
LINE
  8
┌▓È3
 10
575.0
 20
16296.721
 11
-26086.13125
 21
16296.721
  0
LINE
  8
┌▓È3
 10
27559.2195
 20
16296.721
 11
27559.2195
 21
2796.721
  0
LINE
  8
┌▓È3
 10
27559.2195
 20
16296.721
 11
2009.2195
 21
16296.721
  0
LINE
  8
┌▓È3
 10
2009.2195
 20
16296.721
 11
2009.2195
 21
2796.721
  0
LINE
  8
┌▓È3
 10
27559.2195
 20
2796.721
 11
2009.2195
 21
2796.721
  0
LINE
  8
┌▓È3
 10
-26475.0
 20
-4281.558
 11
-26475.0
 21
-906.558
  0
LINE
  8
┌▓È3
 10
-26925.0
 20
-4281.558
 11
-26925.0
 21
-906.558
  0
LINE
  8
┌▓È3
 10
-26475.0
 20
-906.558
 11
186.13125
 21
-906.558
  0
LINE
  8
┌▓È3
 10
186.13125
 20
-906.558
 11
186.13125
 21
-14406.558
  0
LINE
  8
┌▓È3
 10
2010.89925
 20
-906.558
 11
27560.89925
 21
-906.558
  0
LINE
  8
┌▓È3
 10
28010.89925
 20
-3656.558
 11
28010.89925
 21
-906.558
  0
LINE
  8
┌▓È3
 10
27560.89925
 20
-4281.558
 11
27560.89925
 21
-906.558
  0
LINE
  8
┌▓È3
 10
2010.89925
 20
-906.558
 11
2010.89925
 21
-14406.558
  0
LINE
  8
┌▓È3
 10
2010.89925
 20
-14406.558
 11
28326.3485
 21
-14406.558
  0
LINE
  8
┌▓È3
 10
186.13125
 20
-14406.558
 11
-27075.0
 21
-14406.558
  0
LINE
  8
┌▓È3
 10
21900.337
 20
18777.95025
 11
21900.337
 21
16815.235
  0
POLYLINE
  8
┌▓È3
 66
     1
  0
VERTEX
  8
┌▓È3
 10
21900.337
 20
17809.3375
  0
VERTEX
  8
┌▓È3
 10
20900.337
 20
17809.3375
  0
VERTEX
  8
┌▓È3
 10
20900.337
 20
16917.19425
  0
SEQEND
  0
LINE
  8
┌▓È4
 10
-26523.63125
 20
7221.721
 11
-26598.63125
 21
7221.721
  0
LINE
  8
┌▓È4
 10
-26523.63125
 20
7209.221
 11
-26598.63125
 21
7209.221
  0
LINE
  8
┌▓È4
 10
-26523.63125
 20
7371.721
 11
-26523.63125
 21
7146.721
  0
LINE
  8
┌▓È4
 10
-26604.88125
 20
7271.721
 11
-26604.88125
 21
7171.721
  0
LINE
  8
┌▓È4
 10
-26598.63125
 20
7271.721
 11
-26598.63125
 21
7165.471
  0
LINE
  8
┌▓È4
 10
-26767.38125
 20
7221.721
 11
-26767.38125
 21
7171.721
  0
POLYLINE
  8
┌▓È4
 66
     1
 70
     1
  0
VERTEX
  8
┌▓È4
 10
-26667.38125
 20
7496.721
  0
VERTEX
  8
┌▓È4
 10
-26542.38125
 20
7496.721
  0
VERTEX
  8
┌▓È4
 10
-26542.38125
 20
7252.971
  0
VERTEX
  8
┌▓È4
 10
-26667.38125
 20
7252.971
  0
SEQEND
  0
LINE
  8
┌▓È4
 10
-26604.88125
 20
14652.971
 11
-26604.88125
 21
7496.721
  0
POLYLINE
  8
┌▓È4
 66
     1
 70
     1
  0
VERTEX
  8
┌▓È4
 10
-26667.38125
 20
14771.721
  0
VERTEX
  8
┌▓È4
 10
-26542.38125
 20
14771.721
  0
VERTEX
  8
┌▓È4
 10
-26542.38125
 20
14652.971
  0
VERTEX
  8
┌▓È4
 10
-26667.38125
 20
14652.971
  0
SEQEND
  0
LINE
  8
┌▓È4
 10
-26511.13125
 20
7146.721
 11
-26511.13125
 21
14871.721
  0
LINE
  8
┌▓È4
 10
-26523.63125
 20
14871.721
 11
-26523.63125
 21
14796.721
  0
LINE
  8
┌▓È4
 10
-26598.63125
 20
7171.721
 11
-26711.13125
 21
7171.721
  0
LINE
  8
┌▓È4
 10
-26598.63125
 20
7165.471
 11
-26711.13125
 21
7165.471
  0
LINE
  8
┌▓È4
 10
-26679.88125
 20
7221.721
 11
-26679.88125
 21
7171.721
  0
LINE
  8
┌▓È4
 10
-26711.13125
 20
7159.221
 11
-26761.13125
 21
7159.221
  0
LINE
  8
┌▓È4
 10
-26711.13125
 20
7146.721
 11
-26761.13125
 21
7146.721
  0
LINE
  8
┌▓È4
 10
-26754.88125
 20
7159.221
 11
-26754.88125
 21
7196.721
  0
LINE
  8
┌▓È4
 10
-26711.13125
 20
7171.721
 11
-26711.13125
 21
7090.471
  0
LINE
  8
┌▓È4
 10
-26698.63125
 20
7165.471
 11
-26698.63125
 21
7079.218
  0
LINE
  8
┌▓È4
 10
-26936.13125
 20
6990.471
 11
-26936.13125
 21
7065.471
  0
LINE
  8
┌▓È4
 10
-26711.13125
 20
7090.471
 11
-26936.13125
 21
7065.471
  0
LINE
  8
┌▓È4
 10
-26698.63125
 20
7079.218
 11
-26923.63125
 21
7054.218
  0
LINE
  8
┌▓È4
 10
-26923.63125
 20
6990.471
 11
-26923.63125
 21
7054.218
  0
LINE
  8
┌▓È4
 10
-26511.13125
 20
14796.721
 11
-26761.13125
 21
14796.721
  0
LINE
  8
┌▓È4
 10
-26511.13125
 20
14790.471
 11
-26761.13125
 21
14790.471
  0
LINE
  8
┌▓È4
 10
-26761.13125
 20
14871.721
 11
-26711.13125
 21
14871.721
  0
LINE
  8
┌▓È4
 10
-26761.13125
 20
14865.471
 11
-26711.13125
 21
14865.471
  0
LINE
  8
┌▓È4
 10
-26761.13125
 20
7146.721
 11
-26761.13125
 21
14871.721
  0
LINE
  8
┌▓È4
 10
-26754.88125
 20
14871.721
 11
-26754.88125
 21
14796.721
  0
INSERT
  2
*GRP_0004
  8
┌▓È4
 10
0.0
 20
0.0
  0
LINE
  8
┌▓È4
 10
-27075.0
 20
-4406.558
 11
-26425.0
 21
-4406.558
  0
LINE
  8
┌▓È4
 10
-26425.0
 20
-4406.558
 11
-26425.0
 21
-4281.558
  0
LINE
  8
┌▓È4
 10
-26425.0
 20
-4281.558
 11
-26475.0
 21
-4281.558
  0
LINE
  8
┌▓È4
 10
-26925.0
 20
-4281.558
 11
-27075.0
 21
-4281.558
  0
LINE
  8
┌▓È4
 10
-27075.0
 20
-4281.558
 11
-27075.0
 21
-4406.558
  0
LINE
  8
┌▓È4
 10
-26908.543
 20
-4406.558
 11
-26908.543
 21
-14406.558
  0
LINE
  8
┌▓È4
 10
-27075.0
 20
-4406.558
 11
-27075.0
 21
-14406.558
  0
LINE
  8
┌▓È4
 10
28010.89925
 20
-3656.558
 11
28160.89925
 21
-3656.558
  0
LINE
  8
┌▓È4
 10
28160.89925
 20
-3656.558
 11
28160.89925
 21
-4406.558
  0
LINE
  8
┌▓È4
 10
28160.89925
 20
-4406.558
 11
27510.89925
 21
-4406.558
  0
LINE
  8
┌▓È4
 10
27510.89925
 20
-4406.558
 11
27510.89925
 21
-4281.558
  0
LINE
  8
┌▓È4
 10
27510.89925
 20
-4281.558
 11
27560.89925
 21
-4281.558
  0
LINE
  8
┌▓È4
 10
27695.89925
 20
-4406.558
 11
27695.89925
 21
-14406.558
  0
LINE
  8
┌▓È4
 10
27875.89925
 20
-4406.558
 11
27875.89925
 21
-14406.558
  0
LINE
  8
┌▓È4
 10
21900.337
 20
17709.3375
 11
21000.337
 21
17709.3375
  0
LINE
  8
┌▓È4
 10
21000.337
 20
16917.19425
 11
21000.337
 21
17709.3375
  0
LINE
  8
┌▓È4
 10
20900.337
 20
17891.7995
 11
21905.18775
 21
18143.0125
  0
LINE
  8
┌▓È4
 10
20900.337
 20
17891.7995
 11
20920.95275
 21
17809.3375
  0
LINE
  8
┌▓È4
 10
20920.95275
 20
17809.3375
 11
21901.54975
 21
18054.48675
  0
LINE
  8
┌▓È5
 10
-10555.0
 20
16296.721
 11
-10555.0
 21
9296.72225
  0
LINE
  8
┌▓È5
 10
-10675.0
 20
16296.721
 11
-10675.0
 21
9296.72225
  0
LINE
  8
┌▓È5
 10
-8052.5
 20
9421.72175
 11
-8052.5
 21
13421.721
  0
LINE
  8
┌▓È5
 10
-8172.5
 20
9421.72175
 11
-8172.5
 21
13421.721
  0
LINE
  8
┌▓È5
  6
CONTINUOUS
 10
-10555.0
 20
12171.72175
 11
-8172.5
 21
12171.72175
  0
LINE
  8
┌▓È5
  6
CONTINUOUS
 10
-10555.0
 20
12046.72175
 11
-8172.5
 21
12046.72175
  0
LINE
  8
┌▓È5
  6
CONTINUOUS
 10
-10555.0
 20
10796.72175
 11
-8172.5
 21
10796.72175
  0
LINE
  8
┌▓È5
  6
CONTINUOUS
 10
-10555.0
 20
10671.72175
 11
-8172.5
 21
10671.72175
  0
LINE
  8
┌▓È5
  6
CONTINUOUS
 10
-18175.0
 20
16296.721
 11
-10675.0
 21
16296.721
  0
LINE
  8
┌▓È5
 10
-10675.0
 20
16296.721
 11
-10675.0
 21
9296.72225
  0
LINE
  8
┌▓È5
 10
-18055.0
 20
16296.721
 11
-18055.0
 21
9296.72225
  0
LINE
  8
┌▓È5
 10
-18175.0
 20
16296.721
 11
-18175.0
 21
9296.72225
  0
LINE
  8
┌▓È5
  6
CONTINUOUS
 10
-10675.0
 20
9296.72225
 11
-18175.0
 21
9296.72225
  0
LINE
  8
┌▓È5
  6
CONTINUOUS
 10
-18055.0
 20
13546.721
 11
-10795.0
 21
13546.721
  0
LINE
  8
┌▓È5
  6
CONTINUOUS
 10
-18055.0
 20
13421.721
 11
-10795.0
 21
13421.721
  0
LINE
  8
┌▓È5
 10
-15552.5
 20
9421.72175
 11
-15552.5
 21
13421.721
  0
LINE
  8
┌▓È5
  6
CONTINUOUS
 10
-15552.5
 20
12171.72175
 11
-10795.0
 21
12171.72175
  0
LINE
  8
┌▓È5
  6
CONTINUOUS
 10
-15552.5
 20
12046.72175
 11
-10795.0
 21
12046.72175
  0
LINE
  8
┌▓È5
  6
CONTINUOUS
 10
-15552.5
 20
10796.72175
 11
-10795.0
 21
10796.72175
  0
LINE
  8
┌▓È5
  6
CONTINUOUS
 10
-15552.5
 20
10671.72175
 11
-10795.0
 21
10671.72175
  0
LINE
  8
┌▓È5
 10
-15672.5
 20
9421.72175
 11
-15672.5
 21
13421.721
  0
LINE
  8
┌▓È5
  6
CONTINUOUS
 10
-18055.0
 20
12171.72175
 11
-15672.5
 21
12171.72175
  0
LINE
  8
┌▓È5
  6
CONTINUOUS
 10
-18055.0
 20
12046.72175
 11
-15672.5
 21
12046.72175
  0
LINE
  8
┌▓È5
  6
CONTINUOUS
 10
-18055.0
 20
10796.72175
 11
-15672.5
 21
10796.72175
  0
LINE
  8
┌▓È5
  6
CONTINUOUS
 10
-18055.0
 20
10671.72175
 11
-15672.5
 21
10671.72175
  0
LINE
  8
┌▓È5
 10
-10795.0
 20
16296.721
 11
-10795.0
 21
9296.72225
  0
LINE
  8
┌▓È5
  6
CONTINUOUS
 10
-18055.0
 20
9421.72175
 11
-10795.0
 21
9421.72175
  0
LINE
  8
┌▓È5
  6
CONTINUOUS
 10
-18055.0
 20
16146.721
 11
-10795.0
 21
16146.721
  0
LINE
  8
┌▓È5
 10
-10675.00075
 20
7796.721
 11
-15675.00075
 21
7796.721
  0
LINE
  8
┌▓È5
 10
-10675.00075
 20
7796.721
 11
-10675.00075
 21
2796.721
  0
LINE
  8
┌▓È5
 10
-15675.00075
 20
7796.721
 11
-18175.0
 21
7796.721
  0
LINE
  8
┌▓È5
 10
-18175.0
 20
7796.721
 11
-18175.0
 21
2796.721
  0
LINE
  8
┌▓È5
 10
-8175.00125
 20
7796.721
 11
-8175.00125
 21
2796.721
  0
LINE
  8
┌▓È5
 10
-8175.00125
 20
7796.721
 11
-8175.00125
 21
2796.721
  0
LINE
  8
┌▓È5
 10
-10675.00075
 20
7796.721
 11
-10675.00075
 21
2796.721
  0
LINE
  8
┌▓È5
 10
575.0
 20
2796.721
 11
575.0
 21
7796.721
  0
LINE
  8
┌▓È5
 10
575.0
 20
7796.721
 11
-425.0
 21
7796.721
  0
LINE
  8
┌▓È5
 10
575.0
 20
7676.721
 11
-305.0
 21
7676.721
  0
LINE
  8
┌▓È5
 10
-10675.00075
 20
7796.721
 11
575.0
 21
7796.721
  0
LINE
  8
┌▓È5
 10
-425.0
 20
7796.721
 11
-425.0
 21
2796.721
  0
LINE
  8
┌▓È5
 10
-305.0
 20
7676.721
 11
-305.0
 21
2796.721
  0
LINE
  8
┌▓È5
  6
CONTINUOUS
 10
27559.2195
 20
16296.721
 11
25559.2195
 21
16296.721
  0
LINE
  8
┌▓È5
  6
CONTINUOUS
 10
27439.2195
 20
9391.72175
 11
27469.2195
 21
9391.72175
  0
LINE
  8
┌▓È5
  6
CONTINUOUS
 10
27469.2195
 20
9421.72175
 11
27559.2195
 21
9421.72175
  0
LINE
  8
┌▓È5
  6
CONTINUOUS
 10
27469.2195
 20
9541.72175
 11
27559.2195
 21
9541.72175
  0
LINE
  8
┌▓È5
  6
CONTINUOUS
 10
27559.2195
 20
9541.72175
 11
27469.2195
 21
9421.72175
  0
LINE
  8
┌▓È5
  6
CONTINUOUS
 10
25559.2195
 20
13421.721
 11
27439.2195
 21
13421.721
  0
LINE
  8
┌▓È5
  6
CONTINUOUS
 10
25559.2195
 20
13546.721
 11
27439.2195
 21
13546.721
  0
LINE
  8
┌▓È5
  6
CONTINUOUS
 10
25559.2195
 20
13546.721
 11
25559.2195
 21
13421.721
  0
LINE
  8
┌▓È5
  6
CONTINUOUS
 10
27439.2195
 20
16176.721
 11
27469.2195
 21
16176.721
  0
LINE
  8
┌▓È5
  6
CONTINUOUS
 10
27469.2195
 20
16146.721
 11
27559.2195
 21
16146.721
  0
LINE
  8
┌▓È5
  6
CONTINUOUS
 10
27469.2195
 20
16026.721
 11
27559.2195
 21
16026.721
  0
LINE
  8
┌▓È5
  6
CONTINUOUS
 10
27559.2195
 20
16146.721
 11
27469.2195
 21
16026.721
  0
LINE
  8
┌▓È5
  6
CONTINUOUS
 10
25559.2195
 20
16296.721
 11
25559.2195
 21
16146.721
  0
LINE
  8
┌▓È5
  6
CONTINUOUS
 10
25559.2195
 20
16146.721
 11
27559.2195
 21
16146.721
  0
LINE
  8
┌▓È5
  6
CONTINUOUS
 10
27439.2195
 20
9391.72175
 11
27439.2195
 21
16176.721
  0
LINE
  8
┌▓È5
  6
CONTINUOUS
 10
27469.2195
 20
9391.72175
 11
27469.2195
 21
16176.721
  0
LINE
  8
┌▓È5
 10
2129.2195
 20
16296.721
 11
2129.2195
 21
9296.72225
  0
LINE
  8
┌▓È5
 10
2009.2195
 20
16296.721
 11
2009.2195
 21
9296.72225
  0
LINE
  8
┌▓È5
  6
CONTINUOUS
 10
2009.2195
 20
16296.721
 11
8759.2195
 21
16296.721
  0
LINE
  8
┌▓È5
  6
CONTINUOUS
 10
2129.2195
 20
16146.721
 11
8624.22
 21
16146.721
  0
LINE
  8
┌▓È5
 10
8639.2195
 20
16296.721
 11
8639.2195
 21
9296.72225
  0
LINE
  8
┌▓È5
 10
8759.2195
 20
16296.721
 11
8759.2195
 21
9296.72225
  0
LINE
  8
┌▓È5
  6
CONTINUOUS
 10
8759.2195
 20
9296.72225
 11
2009.2195
 21
9296.72225
  0
LINE
  8
┌▓È5
  6
CONTINUOUS
 10
2129.2195
 20
9421.72175
 11
8639.2195
 21
9421.72175
  0
LINE
  8
┌▓È5
  6
CONTINUOUS
 10
27559.2195
 20
9296.72175
 11
25809.2195
 21
9296.72175
  0
LINE
  8
┌▓È5
  6
CONTINUOUS
 10
25809.2195
 20
10671.72175
 11
27439.2195
 21
10671.72175
  0
LINE
  8
┌▓È5
  6
CONTINUOUS
 10
25809.2195
 20
9421.72175
 11
25809.2195
 21
9296.72175
  0
LINE
  8
┌▓È5
  6
CONTINUOUS
 10
25809.2195
 20
9421.72175
 11
27559.2195
 21
9421.72175
  0
LINE
  8
┌▓È5
  6
CONTINUOUS
 10
25809.2195
 20
10796.72175
 11
27439.2195
 21
10796.72175
  0
LINE
  8
┌▓È5
  6
CONTINUOUS
 10
25809.2195
 20
10796.72175
 11
25809.2195
 21
10671.72175
  0
LINE
  8
┌▓È5
 10
2009.2195
 20
2796.721
 11
2009.2195
 21
7796.30175
  0
LINE
  8
┌▓È5
 10
2009.2195
 20
7796.30175
 11
3009.2195
 21
7796.30175
  0
LINE
  8
┌▓È5
 10
2009.2195
 20
7676.30175
 11
2889.2195
 21
7676.30175
  0
LINE
  8
┌▓È5
 10
27559.2195
 20
2796.721
 11
27559.2195
 21
7796.721
  0
LINE
  8
┌▓È5
 10
27559.2195
 20
7796.721
 11
26559.2195
 21
7796.721
  0
LINE
  8
┌▓È5
 10
27559.2195
 20
7676.721
 11
26679.2195
 21
7676.721
  0
LINE
  8
┌▓È5
 10
8639.2195
 20
16296.721
 11
8639.2195
 21
9296.72225
  0
LINE
  8
┌▓È5
  6
CONTINUOUS
 10
2129.2195
 20
12171.72175
 11
5384.2195
 21
12171.72175
  0
LINE
  8
┌▓È5
  6
CONTINUOUS
 10
2129.2195
 20
12046.72175
 11
5384.2195
 21
12046.72175
  0
LINE
  8
┌▓È5
  6
CONTINUOUS
 10
2129.2195
 20
10796.72175
 11
5384.2195
 21
10796.72175
  0
LINE
  8
┌▓È5
  6
CONTINUOUS
 10
2129.2195
 20
10671.72175
 11
5384.2195
 21
10671.72175
  0
LINE
  8
┌▓È5
  6
CONTINUOUS
 10
5509.2195
 20
12171.72175
 11
8639.2195
 21
12171.72175
  0
LINE
  8
┌▓È5
  6
CONTINUOUS
 10
5509.2195
 20
12046.72175
 11
8639.2195
 21
12046.72175
  0
LINE
  8
┌▓È5
  6
CONTINUOUS
 10
5509.2195
 20
10796.72175
 11
8639.2195
 21
10796.72175
  0
LINE
  8
┌▓È5
  6
CONTINUOUS
 10
5509.2195
 20
10671.72175
 11
8639.2195
 21
10671.72175
  0
LINE
  8
┌▓È5
  6
CONTINUOUS
 10
2129.2195
 20
13421.721
 11
5384.2195
 21
13421.721
  0
LINE
  8
┌▓È5
  6
CONTINUOUS
 10
5509.2195
 20
13421.721
 11
8639.2195
 21
13421.721
  0
LINE
  8
┌▓È5
  6
CONTINUOUS
 10
2129.2195
 20
13546.721
 11
5384.2195
 21
13546.721
  0
LINE
  8
┌▓È5
  6
CONTINUOUS
 10
5509.2195
 20
13546.721
 11
8639.2195
 21
13546.721
  0
LINE
  8
┌▓È5
 10
5509.2195
 20
9421.72175
 11
5509.2195
 21
16146.721
  0
LINE
  8
┌▓È5
 10
5384.2195
 20
9421.72175
 11
5384.2195
 21
16146.721
  0
LINE
  8
┌▓È5
  6
CONTINUOUS
 10
25559.2195
 20
12046.72175
 11
27439.2195
 21
12046.72175
  0
LINE
  8
┌▓È5
  6
CONTINUOUS
 10
25559.2195
 20
12171.721
 11
27439.2195
 21
12171.721
  0
LINE
  8
┌▓È5
  6
CONTINUOUS
 10
25559.2195
 20
12171.721
 11
25559.2195
 21
12046.72175
  0
LINE
  8
┌▓È5
 10
2889.2195
 20
7676.30175
 11
2889.2195
 21
2796.721
  0
LINE
  8
┌▓È5
 10
3009.2195
 20
7796.30175
 11
3009.2195
 21
2796.721
  0
LINE
  8
┌▓È5
 10
26559.2195
 20
7796.721
 11
26559.2195
 21
2796.721
  0
LINE
  8
┌▓È5
 10
26679.2195
 20
7676.721
 11
26679.2195
 21
2796.721
  0
LINE
  8
┌▓È5
 10
-10313.86875
 20
-906.558
 11
-10313.86875
 21
-7602.03925
  0
LINE
  8
┌▓È5
 10
-10193.86875
 20
-7602.03925
 11
-10193.86875
 21
-906.558
  0
LINE
  8
┌▓È5
 10
-1933.86875
 20
-7602.03925
 11
-1933.86875
 21
-906.558
  0
LINE
  8
┌▓È5
  6
CONTINUOUS
 10
-10193.86875
 20
-906.558
 11
-1933.86875
 21
-906.558
  0
LINE
  8
┌▓È5
  6
CONTINUOUS
 10
-10193.86875
 20
-7481.558
 11
-1933.86875
 21
-7481.558
  0
LINE
  8
┌▓È5
  6
CONTINUOUS
 10
-10193.86875
 20
-3356.55925
 11
-6126.36875
 21
-3356.55925
  0
LINE
  8
┌▓È5
  6
CONTINUOUS
 10
-10193.86875
 20
-6106.5585
 11
-6126.36875
 21
-6106.5585
  0
LINE
  8
┌▓È5
 10
-6001.36875
 20
-7481.558
 11
-6001.36875
 21
-1056.558
  0
LINE
  8
┌▓È5
 10
-6126.36875
 20
-7481.558
 11
-6126.36875
 21
-1056.558
  0
LINE
  8
┌▓È5
  6
CONTINUOUS
 10
-10193.86875
 20
-1056.558
 11
-1933.86875
 21
-1056.558
  0
LINE
  8
┌▓È5
 10
-1813.86875
 20
-906.558
 11
-1813.86875
 21
-7606.558
  0
LINE
  8
┌▓È5
  6
CONTINUOUS
 10
-10313.86875
 20
-7606.558
 11
-1813.86875
 21
-7606.558
  0
LINE
  8
┌▓È5
  6
CONTINUOUS
 10
-6001.36875
 20
-3481.5585
 11
-1933.86875
 21
-3481.5585
  0
LINE
  8
┌▓È5
  6
CONTINUOUS
 10
-6001.36875
 20
-3356.55925
 11
-1933.86875
 21
-3356.55925
  0
LINE
  8
┌▓È5
  6
CONTINUOUS
 10
-6001.36875
 20
-4856.5585
 11
-1933.86875
 21
-4856.5585
  0
LINE
  8
┌▓È5
  6
CONTINUOUS
 10
-6001.36875
 20
-4731.5585
 11
-1933.86875
 21
-4731.5585
  0
LINE
  8
┌▓È5
  6
CONTINUOUS
 10
-6001.36875
 20
-6231.5585
 11
-1933.86875
 21
-6231.5585
  0
LINE
  8
┌▓È5
  6
CONTINUOUS
 10
-6001.36875
 20
-6106.5585
 11
-1933.86875
 21
-6106.5585
  0
LINE
  8
┌▓È5
  6
CONTINUOUS
 10
-6126.36875
 20
-3481.5585
 11
-10193.86875
 21
-3481.5585
  0
LINE
  8
┌▓È5
  6
CONTINUOUS
 10
-6126.36875
 20
-4731.5585
 11
-10193.86875
 21
-4731.5585
  0
LINE
  8
┌▓È5
  6
CONTINUOUS
 10
-6126.36875
 20
-4856.5585
 11
-10193.86875
 21
-4856.5585
  0
LINE
  8
┌▓È5
  6
CONTINUOUS
 10
-6126.36875
 20
-6231.5585
 11
-10193.86875
 21
-6231.5585
  0
LINE
  8
┌▓È5
  6
CONTINUOUS
 10
-22813.86875
 20
-906.558
 11
-10313.86875
 21
-906.558
  0
LINE
  8
┌▓È5
  6
CONTINUOUS
 10
-22693.86875
 20
-1056.558
 11
-10433.86875
 21
-1056.558
  0
LINE
  8
┌▓È5
  6
CONTINUOUS
 10
-17693.86875
 20
-5156.55725
 11
-15433.868
 21
-5156.55725
  0
LINE
  8
┌▓È5
  6
CONTINUOUS
 10
-15313.868
 20
-5156.55725
 11
-10433.86875
 21
-5156.55725
  0
LINE
  8
┌▓È5
 10
-22693.86875
 20
-7906.55675
 11
-22693.86875
 21
-906.558
  0
LINE
  8
┌▓È5
 10
-22813.86875
 20
-7906.55675
 11
-22813.86875
 21
-906.558
  0
LINE
  8
┌▓È5
 10
-10433.86875
 20
-7906.55675
 11
-10433.86875
 21
-906.558
  0
LINE
  8
┌▓È5
  6
CONTINUOUS
 10
-10313.86875
 20
-7906.55675
 11
-22813.86875
 21
-7906.55675
  0
LINE
  8
┌▓È5
 10
-10313.86875
 20
-7906.55675
 11
-10313.86875
 21
-906.558
  0
LINE
  8
┌▓È5
  6
CONTINUOUS
 10
-22693.86875
 20
-7781.55725
 11
-10433.86875
 21
-7781.55725
  0
LINE
  8
┌▓È5
  6
CONTINUOUS
 10
-17693.86875
 20
-6531.55725
 11
-15433.868
 21
-6531.55725
  0
LINE
  8
┌▓È5
  6
CONTINUOUS
 10
-15313.868
 20
-6531.55725
 11
-10433.86875
 21
-6531.55725
  0
LINE
  8
┌▓È5
  6
CONTINUOUS
 10
-17813.86875
 20
-5156.55725
 11
-22693.86875
 21
-5156.55725
  0
LINE
  8
┌▓È5
  6
CONTINUOUS
 10
-17813.86875
 20
-6531.55725
 11
-22693.86875
 21
-6531.55725
  0
LINE
  8
┌▓È5
  6
CONTINUOUS
 10
-10433.86875
 20
-6406.55725
 11
-22693.86875
 21
-6406.55725
  0
LINE
  8
┌▓È5
 10
-26313.86875
 20
-906.558
 11
-26313.86875
 21
-7902.038
  0
LINE
  8
┌▓È5
 10
-26193.86875
 20
-7902.038
 11
-26193.86875
 21
-906.558
  0
LINE
  8
┌▓È5
 10
-22813.86875
 20
-906.558
 11
-22813.86875
 21
-7902.038
  0
LINE
  8
┌▓È5
 10
-22933.86875
 20
-7902.038
 11
-22933.86875
 21
-906.558
  0
LINE
  8
┌▓È5
  6
CONTINUOUS
 10
-26193.86875
 20
-5031.55725
 11
-22948.86875
 21
-5031.55725
  0
LINE
  8
┌▓È5
  6
CONTINUOUS
 10
-26193.86875
 20
-6406.55725
 11
-22948.86875
 21
-6406.55725
  0
LINE
  8
┌▓È5
  6
CONTINUOUS
 10
-26193.86875
 20
-7781.55725
 11
-22948.86875
 21
-7781.55725
  0
LINE
  8
┌▓È5
  6
CONTINUOUS
 10
-26313.86875
 20
-7906.55675
 11
-22813.86875
 21
-7906.55675
  0
LINE
  8
┌▓È5
  6
CONTINUOUS
 10
-26193.86875
 20
-6531.55725
 11
-22933.86875
 21
-6531.55725
  0
LINE
  8
┌▓È5
  6
CONTINUOUS
 10
-26193.86875
 20
-5156.55725
 11
-22933.86875
 21
-5156.55725
  0
LINE
  8
┌▓È5
  6
CONTINUOUS
 10
-26193.86875
 20
-3656.558
 11
-22933.86875
 21
-3656.558
  0
LINE
  8
┌▓È5
  6
CONTINUOUS
 10
-26193.86875
 20
-3781.558
 11
-22933.86875
 21
-3781.558
  0
LINE
  8
┌▓È5
  6
CONTINUOUS
 10
-26193.86875
 20
-1056.558
 11
-22933.86875
 21
-1056.558
  0
LINE
  8
┌▓È5
  6
CONTINUOUS
 10
-22813.86875
 20
-906.558
 11
-26313.86875
 21
-906.558
  0
LINE
  8
┌▓È5
 10
-17813.86875
 20
-13906.558
 11
-15313.86875
 21
-13906.558
  0
LINE
  8
┌▓È5
 10
-10313.86875
 20
-9406.558
 11
-15313.86875
 21
-9406.558
  0
LINE
  8
┌▓È5
 10
-15313.86875
 20
-9406.558
 11
-15313.86875
 21
-14406.558
  0
LINE
  8
┌▓È5
 10
-15313.86875
 20
-9406.558
 11
-15313.86875
 21
-14406.558
  0
LINE
  8
┌▓È5
 10
-17813.86875
 20
-9406.558
 11
-17813.86875
 21
-14406.558
  0
LINE
  8
┌▓È5
 10
-17813.86875
 20
-9406.558
 11
-17813.86875
 21
-14406.558
  0
LINE
  8
┌▓È5
 10
-26313.86875
 20
-9406.558
 11
-26313.86875
 21
-14406.558
  0
LINE
  8
┌▓È5
 10
-3563.86875
 20
-10106.558
 11
-813.86875
 21
-10106.558
  0
LINE
  8
┌▓È5
 10
186.13125
 20
-14406.558
 11
186.13125
 21
-9406.558
  0
LINE
  8
┌▓È5
 10
186.13125
 20
-9406.558
 11
-813.86875
 21
-9406.558
  0
LINE
  8
┌▓È5
 10
186.13125
 20
-9526.558
 11
-693.86875
 21
-9526.558
  0
LINE
  8
┌▓È5
 10
-10313.86875
 20
-9406.558
 11
-10313.86875
 21
-14406.558
  0
LINE
  8
┌▓È5
 10
-10313.86875
 20
-9406.558
 11
-10313.86875
 21
-14406.558
  0
LINE
  8
┌▓È5
 10
-813.86875
 20
-9406.558
 11
-813.86875
 21
-14406.558
  0
LINE
  8
┌▓È5
 10
-693.86875
 20
-9526.558
 11
-693.86875
 21
-14406.558
  0
LINE
  8
┌▓È5
 10
7390.89925
 20
-7602.03925
 11
7390.89925
 21
-906.558
  0
LINE
  8
┌▓È5
 10
7510.89925
 20
-7602.03925
 11
7510.89925
 21
-906.558
  0
LINE
  8
┌▓È5
 10
7510.89925
 20
-906.558
 11
7510.89925
 21
-7606.558
  0
LINE
  8
┌▓È5
  6
CONTINUOUS
 10
7510.89925
 20
-906.558
 11
2010.89925
 21
-906.558
  0
LINE
  8
┌▓È5
  6
CONTINUOUS
 10
10130.89925
 20
-1056.558
 11
16390.8985
 21
-1056.558
  0
LINE
  8
┌▓È5
  6
CONTINUOUS
 10
16510.8985
 20
-906.558
 11
10010.89925
 21
-906.558
  0
LINE
  8
┌▓È5
  6
CONTINUOUS
 10
10130.89925
 20
-3406.558
 11
16390.8985
 21
-3406.558
  0
LINE
  8
┌▓È5
  6
CONTINUOUS
 10
10130.89925
 20
-3531.558
 11
16390.8985
 21
-3531.558
  0
LINE
  8
┌▓È5
  6
CONTINUOUS
 10
10130.89925
 20
-4781.5585
 11
16390.8985
 21
-4781.5585
  0
LINE
  8
┌▓È5
  6
CONTINUOUS
 10
10130.89925
 20
-4906.558
 11
16390.8985
 21
-4906.558
  0
LINE
  8
┌▓È5
  6
CONTINUOUS
 10
10130.89925
 20
-6156.558
 11
16390.8985
 21
-6156.558
  0
LINE
  8
┌▓È5
  6
CONTINUOUS
 10
10130.89925
 20
-6281.558
 11
16390.8985
 21
-6281.558
  0
LINE
  8
┌▓È5
 10
10010.89925
 20
-906.558
 11
10010.89925
 21
-7652.0385
  0
LINE
  8
┌▓È5
 10
10130.89925
 20
-7652.0385
 11
10130.89925
 21
-906.558
  0
LINE
  8
┌▓È5
 10
16390.8985
 20
-7652.0385
 11
16390.8985
 21
-906.558
  0
LINE
  8
┌▓È5
  6
CONTINUOUS
 10
10130.89925
 20
-7531.558
 11
16390.8985
 21
-7531.558
  0
LINE
  8
┌▓È5
 10
16510.8985
 20
-7652.0385
 11
16510.8985
 21
-906.558
  0
LINE
  8
┌▓È5
 10
16510.8985
 20
-906.558
 11
16510.8985
 21
-7656.55725
  0
LINE
  8
┌▓È5
  6
CONTINUOUS
 10
10010.89925
 20
-7656.55725
 11
16510.8985
 21
-7656.55725
  0
LINE
  8
┌▓È5
  6
CONTINUOUS
 10
575.0
 20
16296.721
 11
-1425.0
 21
16296.721
  0
LINE
  8
┌▓È5
  6
CONTINUOUS
 10
-1425.0
 20
13421.721
 11
455.0
 21
13421.721
  0
LINE
  8
┌▓È5
  6
CONTINUOUS
 10
-1425.0
 20
13546.721
 11
455.0
 21
13546.721
  0
LINE
  8
┌▓È5
  6
CONTINUOUS
 10
-1425.0
 20
13546.721
 11
-1425.0
 21
13421.721
  0
LINE
  8
┌▓È5
  6
CONTINUOUS
 10
-1425.0
 20
16296.721
 11
-1425.0
 21
16146.721
  0
LINE
  8
┌▓È5
  6
CONTINUOUS
 10
575.0
 20
9296.72175
 11
-1175.0
 21
9296.72175
  0
LINE
  8
┌▓È5
  6
CONTINUOUS
 10
-1175.0
 20
10671.72175
 11
455.0
 21
10671.72175
  0
LINE
  8
┌▓È5
  6
CONTINUOUS
 10
-1175.0
 20
9421.72175
 11
-1175.0
 21
9296.72175
  0
LINE
  8
┌▓È5
  6
CONTINUOUS
 10
-1175.0
 20
10796.72175
 11
455.0
 21
10796.72175
  0
LINE
  8
┌▓È5
  6
CONTINUOUS
 10
-1175.0
 20
10796.72175
 11
-1175.0
 21
10671.72175
  0
LINE
  8
┌▓È5
  6
CONTINUOUS
 10
-1425.0
 20
12046.72175
 11
455.0
 21
12046.72175
  0
LINE
  8
┌▓È5
  6
CONTINUOUS
 10
-1425.0
 20
12171.721
 11
455.0
 21
12171.721
  0
LINE
  8
┌▓È5
  6
CONTINUOUS
 10
-1425.0
 20
12171.721
 11
-1425.0
 21
12046.72175
  0
LINE
  8
┌▓È5
  6
CONTINUOUS
 10
186.13125
 20
-906.558
 11
-1813.86875
 21
-906.558
  0
LINE
  8
┌▓È5
  6
CONTINUOUS
 10
66.13125
 20
-1026.558
 11
96.13125
 21
-1026.558
  0
LINE
  8
┌▓È5
  6
CONTINUOUS
 10
96.13125
 20
-1056.558
 11
186.13125
 21
-1056.558
  0
LINE
  8
┌▓È5
  6
CONTINUOUS
 10
96.13125
 20
-1176.558
 11
186.13125
 21
-1176.558
  0
LINE
  8
┌▓È5
  6
CONTINUOUS
 10
186.13125
 20
-1056.558
 11
96.13125
 21
-1176.558
  0
LINE
  8
┌▓È5
  6
CONTINUOUS
 10
-1813.86875
 20
-906.558
 11
-1813.86875
 21
-1056.558
  0
LINE
  8
┌▓È5
  6
CONTINUOUS
 10
-1813.86875
 20
-1056.558
 11
186.13125
 21
-1056.558
  0
LINE
  8
┌▓È5
  6
CONTINUOUS
 10
-1813.86875
 20
-3481.55925
 11
66.13125
 21
-3481.55925
  0
LINE
  8
┌▓È5
  6
CONTINUOUS
 10
-1813.86875
 20
-3356.55925
 11
66.13125
 21
-3356.55925
  0
LINE
  8
┌▓È5
  6
CONTINUOUS
 10
-1813.86875
 20
-3356.55925
 11
-1813.86875
 21
-3481.55925
  0
LINE
  8
┌▓È5
  6
CONTINUOUS
 10
66.13125
 20
-7511.5585
 11
96.13125
 21
-7511.5585
  0
LINE
  8
┌▓È5
  6
CONTINUOUS
 10
96.13125
 20
-7481.5585
 11
186.13125
 21
-7481.5585
  0
LINE
  8
┌▓È5
  6
CONTINUOUS
 10
96.13125
 20
-7361.5585
 11
186.13125
 21
-7361.5585
  0
LINE
  8
┌▓È5
  6
CONTINUOUS
 10
186.13125
 20
-7361.5585
 11
96.13125
 21
-7481.5585
  0
LINE
  8
┌▓È5
  6
CONTINUOUS
 10
66.13125
 20
-7511.5585
 11
66.13125
 21
-1026.558
  0
LINE
  8
┌▓È5
  6
CONTINUOUS
 10
96.13125
 20
-7511.5585
 11
96.13125
 21
-1026.558
  0
LINE
  8
┌▓È5
  6
CONTINUOUS
 10
-1563.86875
 20
-6231.5585
 11
66.13125
 21
-6231.5585
  0
LINE
  8
┌▓È5
  6
CONTINUOUS
 10
-1563.86875
 20
-6106.5585
 11
66.13125
 21
-6106.5585
  0
LINE
  8
┌▓È5
  6
CONTINUOUS
 10
-1563.86875
 20
-6106.5585
 11
-1563.86875
 21
-6231.5585
  0
LINE
  8
┌▓È5
  6
CONTINUOUS
 10
186.13125
 20
-7606.558
 11
-1563.86875
 21
-7606.558
  0
LINE
  8
┌▓È5
  6
CONTINUOUS
 10
-1563.86875
 20
-7481.5585
 11
-1563.86875
 21
-7606.558
  0
LINE
  8
┌▓È5
  6
CONTINUOUS
 10
-1563.86875
 20
-7481.5585
 11
186.13125
 21
-7481.5585
  0
LINE
  8
┌▓È5
  6
CONTINUOUS
 10
-1813.86875
 20
-4856.5585
 11
66.13125
 21
-4856.5585
  0
LINE
  8
┌▓È5
  6
CONTINUOUS
 10
-1813.86875
 20
-4731.5585
 11
66.13125
 21
-4731.5585
  0
LINE
  8
┌▓È5
  6
CONTINUOUS
 10
-1813.86875
 20
-4731.5585
 11
-1813.86875
 21
-4856.5585
  0
LINE
  8
┌▓È5
  6
CONTINUOUS
 10
7390.89925
 20
-1056.558
 11
3884.508
 21
-1056.558
  0
LINE
  8
┌▓È5
  6
CONTINUOUS
 10
7390.89925
 20
-3356.55925
 11
3910.945
 21
-3356.55925
  0
LINE
  8
┌▓È5
  6
CONTINUOUS
 10
7390.89925
 20
-3481.5585
 11
3912.38175
 21
-3481.5585
  0
LINE
  8
┌▓È5
  6
CONTINUOUS
 10
7390.89925
 20
-4856.5585
 11
3928.18625
 21
-4856.5585
  0
LINE
  8
┌▓È5
  6
CONTINUOUS
 10
7390.89925
 20
-4731.5585
 11
3926.7495
 21
-4731.5585
  0
LINE
  8
┌▓È5
  6
CONTINUOUS
 10
-4950.94875
 20
28153.55275
 11
-2950.94875
 21
28153.55275
  0
LINE
  8
┌▓È5
  6
CONTINUOUS
 10
-4830.94875
 20
28033.55275
 11
-4860.94875
 21
28033.55275
  0
LINE
  8
┌▓È5
  6
CONTINUOUS
 10
-4860.94875
 20
28003.55275
 11
-4950.94875
 21
28003.55275
  0
LINE
  8
┌▓È5
  6
CONTINUOUS
 10
-4860.94875
 20
27883.55275
 11
-4950.94875
 21
27883.55275
  0
LINE
  8
┌▓È5
  6
CONTINUOUS
 10
-4950.94875
 20
28003.55275
 11
-4860.94875
 21
27883.55275
  0
LINE
  8
┌▓È5
  6
CONTINUOUS
 10
-2950.94875
 20
28153.55275
 11
-2950.94875
 21
28003.55275
  0
LINE
  8
┌▓È5
  6
CONTINUOUS
 10
-2950.94875
 20
28003.55275
 11
-4950.94875
 21
28003.55275
  0
LINE
  8
┌▓È5
  6
CONTINUOUS
 10
-2950.94875
 20
25578.5515
 11
-4830.94875
 21
25578.5515
  0
LINE
  8
┌▓È5
  6
CONTINUOUS
 10
-2950.94875
 20
25703.5515
 11
-4830.94875
 21
25703.5515
  0
LINE
  8
┌▓È5
  6
CONTINUOUS
 10
-2950.94875
 20
25703.5515
 11
-2950.94875
 21
25578.5515
  0
LINE
  8
┌▓È5
  6
CONTINUOUS
 10
-4830.94875
 20
21548.55225
 11
-4860.94875
 21
21548.55225
  0
LINE
  8
┌▓È5
  6
CONTINUOUS
 10
-4860.94875
 20
21578.55225
 11
-4950.94875
 21
21578.55225
  0
LINE
  8
┌▓È5
  6
CONTINUOUS
 10
-4860.94875
 20
21698.55225
 11
-4950.94875
 21
21698.55225
  0
LINE
  8
┌▓È5
  6
CONTINUOUS
 10
-4950.94875
 20
21698.55225
 11
-4860.94875
 21
21578.55225
  0
LINE
  8
┌▓È5
  6
CONTINUOUS
 10
-4830.94875
 20
21548.55225
 11
-4830.94875
 21
28033.55275
  0
LINE
  8
┌▓È5
  6
CONTINUOUS
 10
-4860.94875
 20
21548.55225
 11
-4860.94875
 21
28033.55275
  0
LINE
  8
┌▓È5
  6
CONTINUOUS
 10
-3200.94875
 20
22828.55225
 11
-4830.94875
 21
22828.55225
  0
LINE
  8
┌▓È5
  6
CONTINUOUS
 10
-3200.94875
 20
22953.55225
 11
-4830.94875
 21
22953.55225
  0
LINE
  8
┌▓È5
  6
CONTINUOUS
 10
-3200.94875
 20
22953.55225
 11
-3200.94875
 21
22828.55225
  0
LINE
  8
┌▓È5
  6
CONTINUOUS
 10
-4950.94875
 20
21453.55275
 11
-3200.94875
 21
21453.55275
  0
LINE
  8
┌▓È5
  6
CONTINUOUS
 10
-3200.94875
 20
21578.55225
 11
-3200.94875
 21
21453.55275
  0
LINE
  8
┌▓È5
  6
CONTINUOUS
 10
-3200.94875
 20
21578.55225
 11
-4950.94875
 21
21578.55225
  0
LINE
  8
┌▓È5
  6
CONTINUOUS
 10
-2950.94875
 20
24203.55225
 11
-4830.94875
 21
24203.55225
  0
LINE
  8
┌▓È5
  6
CONTINUOUS
 10
-2950.94875
 20
24328.55225
 11
-4830.94875
 21
24328.55225
  0
LINE
  8
┌▓È5
  6
CONTINUOUS
 10
-2950.94875
 20
24328.55225
 11
-2950.94875
 21
24203.55225
  0
LINE
  8
┌▓È5
  6
CONTINUOUS
 10
2010.89925
 20
-906.558
 11
4010.89925
 21
-906.558
  0
LINE
  8
┌▓È5
  6
CONTINUOUS
 10
4010.89925
 20
-3481.55925
 11
2130.89925
 21
-3481.55925
  0
LINE
  8
┌▓È5
  6
CONTINUOUS
 10
4010.89925
 20
-3356.55925
 11
2130.89925
 21
-3356.55925
  0
LINE
  8
┌▓È5
  6
CONTINUOUS
 10
3760.89925
 20
-6231.5585
 11
2130.89925
 21
-6231.5585
  0
LINE
  8
┌▓È5
  6
CONTINUOUS
 10
3760.89925
 20
-6106.5585
 11
2130.89925
 21
-6106.5585
  0
LINE
  8
┌▓È5
  6
CONTINUOUS
 10
2010.89925
 20
-7606.558
 11
3760.89925
 21
-7606.558
  0
LINE
  8
┌▓È5
  6
CONTINUOUS
 10
3760.89925
 20
-7481.5585
 11
2010.89925
 21
-7481.5585
  0
LINE
  8
┌▓È5
  6
CONTINUOUS
 10
4010.89925
 20
-4856.5585
 11
2130.89925
 21
-4856.5585
  0
LINE
  8
┌▓È5
  6
CONTINUOUS
 10
4010.89925
 20
-4731.5585
 11
2130.89925
 21
-4731.5585
  0
LINE
  8
┌▓È5
  6
CONTINUOUS
 10
7390.89925
 20
-6106.5585
 11
3760.89925
 21
-6106.5585
  0
LINE
  8
┌▓È5
  6
CONTINUOUS
 10
7390.89925
 20
-6231.5585
 11
3760.89925
 21
-6231.5585
  0
LINE
  8
┌▓È5
  6
CONTINUOUS
 10
7390.89925
 20
-7481.558
 11
3760.89925
 21
-7481.558
  0
LINE
  8
┌▓È5
  6
CONTINUOUS
 10
7510.89925
 20
-7606.558
 11
3760.89925
 21
-7606.558
  0
LINE
  8
┌▓È5
 10
-15313.86875
 20
-13906.558
 11
-17813.86875
 21
-13906.558
  0
LINE
  8
┌▓È5
 10
-26313.86875
 20
-9406.558
 11
-10313.86875
 21
-9406.558
  0
LINE
  8
┌▓È5
 10
-8175.00125
 20
3296.721
 11
-10675.00125
 21
3296.721
  0
LINE
  8
┌▓È5
 10
2010.89925
 20
-7606.558
 11
2010.89925
 21
-911.07675
  0
LINE
  8
┌▓È5
 10
2130.89925
 20
-7606.558
 11
2130.89925
 21
-911.07675
  0
LINE
  8
┌▓È5
 10
2130.89925
 20
-911.07675
 11
2130.89925
 21
-7611.07675
  0
LINE
  8
┌▓È5
  6
CONTINUOUS
 10
4010.89925
 20
-1056.558
 11
2130.89925
 21
-1056.558
  0
LINE
  8
┌▓È5
  6
DASHED
 10
4010.89925
 20
-906.558
 11
4010.89925
 21
-1056.558
  0
LINE
  8
┌▓È5
  6
DASHED
 10
4010.89925
 20
-3356.55925
 11
4010.89925
 21
-3481.55925
  0
LINE
  8
┌▓È5
  6
DASHED
 10
3760.89925
 20
-6106.5585
 11
3760.89925
 21
-6231.5585
  0
LINE
  8
┌▓È5
  6
DASHED
 10
3760.89925
 20
-7481.5585
 11
3760.89925
 21
-7606.558
  0
LINE
  8
┌▓È5
 10
-22813.86875
 20
-9406.558
 11
-22813.86875
 21
-14406.558
  0
INSERT
  2
*GRP_0007
  8
┌▓È5
 10
0.0
 20
0.0
  0
LINE
  8
┌▓È5
  6
CONTINUOUS
 10
10932.0145
 20
16146.721
 11
16692.01375
 21
16146.721
  0
LINE
  8
┌▓È5
  6
CONTINUOUS
 10
16812.01375
 20
16296.721
 11
10812.0145
 21
16296.721
  0
LINE
  8
┌▓È5
 10
10812.0145
 20
16296.721
 11
10812.0145
 21
9551.23975
  0
LINE
  8
┌▓È5
 10
10932.0145
 20
9551.23975
 11
10932.0145
 21
16296.721
  0
LINE
  8
┌▓È5
 10
16692.01375
 20
9551.23975
 11
16692.01375
 21
16296.721
  0
LINE
  8
┌▓È5
 10
16812.01375
 20
9551.23975
 11
16812.01375
 21
16296.721
  0
LINE
  8
┌▓È5
 10
16812.01375
 20
16296.721
 11
16812.01375
 21
9546.721
  0
LINE
  8
┌▓È5
  6
CONTINUOUS
 10
10932.0145
 20
9671.7205
 11
16692.01375
 21
9671.7205
  0
LINE
  8
┌▓È5
  6
CONTINUOUS
 10
10812.0145
 20
9546.721
 11
16812.01375
 21
9546.721
  0
LINE
  8
┌▓È5
  6
CONTINUOUS
 10
10932.0145
 20
10921.721
 11
16692.01375
 21
10921.721
  0
LINE
  8
┌▓È5
  6
CONTINUOUS
 10
10932.0145
 20
10796.721
 11
16692.01375
 21
10796.721
  0
LINE
  8
┌▓È5
  6
CONTINUOUS
 10
10932.0145
 20
12296.721
 11
16692.01375
 21
12296.721
  0
LINE
  8
┌▓È5
  6
CONTINUOUS
 10
10932.0145
 20
12171.721
 11
16692.01375
 21
12171.721
  0
LINE
  8
┌▓È5
  6
CONTINUOUS
 10
10932.0145
 20
13671.721
 11
16692.01375
 21
13671.721
  0
LINE
  8
┌▓È5
  6
CONTINUOUS
 10
10932.0145
 20
13546.72175
 11
16692.01375
 21
13546.72175
  0
LINE
  8
┌▓È5
 10
8012.0145
 20
7796.721
 11
8012.0145
 21
2796.721
  0
LINE
  8
┌▓È5
 10
17012.01375
 20
7796.721
 11
17012.01375
 21
2796.721
  0
LINE
  8
┌▓È5
 10
17012.01375
 20
7796.721
 11
8012.0145
 21
7796.721
  0
LINE
  8
┌▓È5
 10
8012.0145
 20
7796.721
 11
8012.0145
 21
2796.721
  0
LINE
  8
┌▓È5
 10
8012.0145
 20
7796.721
 11
3009.2195
 21
7796.721
  0
LINE
  8
┌▓È5
 10
17012.01375
 20
6976.721
 11
8012.0145
 21
6976.721
  0
LINE
  8
┌▓È5
 10
17012.01375
 20
7096.721
 11
8012.0145
 21
7096.721
  0
LINE
  8
┌▓È5
 10
16892.01375
 20
2796.721
 11
16892.01375
 21
6476.721
  0
LINE
  8
┌▓È5
 10
14270.07
 20
6492.93175
 11
14270.07
 21
6976.721
  0
LINE
  8
┌▓È5
 10
11528.12575
 20
6476.721
 11
11528.12575
 21
6976.721
  0
LINE
  8
┌▓È5
 10
-3563.86875
 20
-14106.558
 11
-813.86875
 21
-14106.558
  0
LINE
  8
┌▓È5
 10
-3563.86875
 20
-10106.558
 11
-3563.86875
 21
-14106.558
  0
LINE
  8
┌▓È5
 10
14760.89925
 20
-9406.55825
 11
14760.89925
 21
-14406.558
  0
LINE
  8
┌▓È5
 10
14640.89925
 20
-14406.558
 11
14640.89925
 21
-10726.55825
  0
LINE
  8
┌▓È5
 10
14760.89925
 20
-9406.55825
 11
14760.89925
 21
-14406.558
  0
LINE
  8
┌▓È5
 10
14760.89925
 20
-9406.55825
 11
3010.8995
 21
-9406.55825
  0
LINE
  8
┌▓È5
 10
-2096.3155
 20
-10106.558
 11
-3563.86875
 21
-10106.558
  0
LINE
  8
┌▓È5
 10
-813.86875
 20
-10226.558
 11
-3563.86875
 21
-10226.558
  0
LINE
  8
┌▓È5
 10
-813.86875
 20
-9406.558
 11
-3563.86875
 21
-9406.558
  0
LINE
  8
┌▓È5
 10
2010.89925
 20
-14406.558
 11
2010.89925
 21
-9406.55825
  0
LINE
  8
┌▓È5
 10
2010.89925
 20
-9406.55825
 11
3010.8995
 21
-9406.55825
  0
LINE
  8
┌▓È5
 10
2010.89925
 20
-9526.55825
 11
2890.8995
 21
-9526.55825
  0
LINE
  8
┌▓È5
 10
3010.8995
 20
-9406.55825
 11
3010.8995
 21
-14406.558
  0
LINE
  8
┌▓È5
 10
2890.8995
 20
-9526.55825
 11
2890.8995
 21
-14406.558
  0
LINE
  8
┌▓È5
 10
5760.89925
 20
-10226.55825
 11
3010.8995
 21
-10226.55825
  0
LINE
  8
┌▓È5
 10
3510.8995
 20
-10226.55825
 11
3510.8995
 21
-10726.55825
  0
LINE
  8
┌▓È5
 10
3605.8995
 20
-10676.55825
 11
5640.8995
 21
-10676.55825
  0
LINE
  8
┌▓È5
 10
3605.8995
 20
-10701.55825
 11
5640.8995
 21
-10701.55825
  0
LINE
  8
┌▓È5
 10
3510.8995
 20
-10726.55825
 11
3605.8995
 21
-10726.55825
  0
LINE
  8
┌▓È5
 10
3605.8995
 20
-10226.55825
 11
3605.8995
 21
-10726.55825
  0
LINE
  8
┌▓È5
 10
5760.8995
 20
-10106.55825
 11
5760.8995
 21
-10854.63125
  0
LINE
  8
┌▓È5
 10
5640.8995
 20
-10226.55825
 11
5640.8995
 21
-10854.63125
  0
LINE
  8
┌▓È5
 10
5640.8995
 20
-10854.63125
 11
5760.8995
 21
-10854.63125
  0
LINE
  8
┌▓È5
 10
5760.89925
 20
-10106.55825
 11
3010.8995
 21
-10106.55825
  0
LINE
  8
┌▓È5
 10
14760.89925
 20
-10226.55825
 11
5760.8995
 21
-10226.55825
  0
LINE
  8
┌▓È5
 10
14760.89925
 20
-10106.55825
 11
5760.8995
 21
-10106.55825
  0
LINE
  8
┌▓È5
 10
14760.89925
 20
-10726.55825
 11
5760.8995
 21
-10726.55825
  0
LINE
  8
┌▓È5
 10
3010.8995
 20
-10726.55825
 11
3510.8995
 21
-10726.55825
  0
INSERT
  2
*GRP_0010
  8
┌▓È5
 10
0.0
 20
0.0
  0
LINE
  8
┌▓È5
 10
8012.0145
 20
6476.721
 11
17012.01375
 21
6476.721
  0
INSERT
  2
*GRP_0009
  8
┌▓È5
 10
0.0
 20
0.0
  0
LINE
  8
┌▓È5
 10
4823.39925
 20
-1056.558
 11
4823.39925
 21
-3356.55925
  0
LINE
  8
┌▓È5
 10
4698.39925
 20
-1056.558
 11
4698.39925
 21
-3356.55925
  0
LINE
  8
┌▓È5
 10
4823.39925
 20
-3481.5585
 11
4823.39925
 21
-4731.5585
  0
LINE
  8
┌▓È5
 10
4698.39925
 20
-3481.5585
 11
4698.39925
 21
-4731.5585
  0
LINE
  8
┌▓È5
 10
4823.39925
 20
-4856.5585
 11
4823.39925
 21
-6106.5585
  0
LINE
  8
┌▓È5
 10
4823.39925
 20
-6231.5585
 11
4823.39925
 21
-7481.558
  0
LINE
  8
┌▓È5
 10
4698.39925
 20
-4856.5585
 11
4698.39925
 21
-6106.5585
  0
LINE
  8
┌▓È5
 10
4698.39925
 20
-6231.5585
 11
4698.39925
 21
-7481.558
  0
LINE
  8
┌▓È5
  6
CONTINUOUS
 10
-10555.0
 20
16146.721
 11
-1425.0
 21
16146.721
  0
LINE
  8
┌▓È5
  6
CONTINUOUS
 10
-10675.0
 20
16296.721
 11
-1425.0
 21
16296.721
  0
LINE
  8
┌▓È5
  6
CONTINUOUS
 10
-10555.0
 20
13546.721
 11
-1425.0
 21
13546.721
  0
LINE
  8
┌▓È5
  6
CONTINUOUS
 10
-10555.0
 20
13421.721
 11
-1425.0
 21
13421.721
  0
LINE
  8
┌▓È5
  6
CONTINUOUS
 10
-8052.5
 20
12171.72175
 11
-1425.0
 21
12171.72175
  0
LINE
  8
┌▓È5
  6
CONTINUOUS
 10
-8052.5
 20
12046.72175
 11
-1425.0
 21
12046.72175
  0
LINE
  8
┌▓È5
  6
CONTINUOUS
 10
-8052.5
 20
10796.72175
 11
-1175.0
 21
10796.72175
  0
LINE
  8
┌▓È5
  6
CONTINUOUS
 10
-8052.5
 20
10671.72175
 11
-1175.0
 21
10671.72175
  0
LINE
  8
┌▓È5
  6
CONTINUOUS
 10
-10675.0
 20
9296.72225
 11
-1175.0
 21
9296.72225
  0
LINE
  8
┌▓È5
  6
CONTINUOUS
 10
-10555.0
 20
9421.72175
 11
-1175.0
 21
9421.72175
  0
LINE
  8
┌▓È5
  6
CONTINUOUS
 10
4009.2195
 20
13546.721
 11
4009.2195
 21
13421.721
  0
LINE
  8
┌▓È5
  6
CONTINUOUS
 10
4009.2195
 20
16296.721
 11
4009.2195
 21
16146.721
  0
LINE
  8
┌▓È5
  6
CONTINUOUS
 10
3759.2195
 20
9421.72175
 11
3759.2195
 21
9296.72175
  0
LINE
  8
┌▓È5
  6
CONTINUOUS
 10
3759.2195
 20
10796.72175
 11
3759.2195
 21
10671.72175
  0
LINE
  8
┌▓È5
  6
CONTINUOUS
 10
4009.2195
 20
12171.721
 11
4009.2195
 21
12046.72175
  0
LINE
  8
┌▓È5
  6
CONTINUOUS
 10
-1175.0
 20
9421.72175
 11
455.0
 21
9421.72175
  0
LINE
  8
┌▓È5
  6
CONTINUOUS
 10
-1425.0
 20
16146.721
 11
455.0
 21
16146.721
  0
LINE
  8
┌▓È5
  6
CONTINUOUS
 10
455.0
 20
9296.72175
 11
455.0
 21
16296.721
  0
LINE
  8
┌▓È5
 10
9000.89975
 20
-10726.55825
 11
9000.89975
 21
-14406.558
  0
LINE
  8
┌▓È5
 10
5760.89925
 20
-14406.558
 11
5760.89925
 21
-10226.55825
  0
INSERT
  2
*GRP_0012
  8
┌▓È5
 10
0.0
 20
0.0
  0
LINE
  8
┌▓È5
 10
-10675.00075
 20
6676.721
 11
-15675.00075
 21
6676.721
  0
LINE
  8
┌▓È5
 10
-10675.00075
 20
6796.721
 11
-15675.00075
 21
6796.721
  0
LINE
  8
┌▓È5
 10
-15675.00075
 20
6676.721
 11
-18175.0
 21
6676.721
  0
LINE
  8
┌▓È5
 10
-15675.00075
 20
6796.721
 11
-18175.0
 21
6796.721
  0
LINE
  8
┌▓È5
 10
-3175.0
 20
6796.721
 11
-425.0
 21
6796.721
  0
LINE
  8
┌▓È5
  6
DASHED
 10
-18175.0
 20
6796.721
 11
-21175.0
 21
6796.721
  0
LINE
  8
┌▓È5
 10
-18055.0
 20
2796.721
 11
-18055.0
 21
6176.721
  0
LINE
  8
┌▓È5
 10
-18175.0
 20
6176.721
 11
-10675.00075
 21
6176.721
  0
LINE
  8
┌▓È5
 10
-13175.00075
 20
6676.721
 11
-13175.00075
 21
6176.721
  0
LINE
  8
┌▓È5
 10
-15675.0
 20
6676.721
 11
-15675.0
 21
6176.721
  0
LINE
  8
┌▓È5
 10
-3175.0
 20
6676.721
 11
-425.0
 21
6676.721
  0
LINE
  8
┌▓È5
 10
-17538.4025
 20
6796.721
 11
-10675.00075
 21
6796.721
  0
LINE
  8
┌▓È5
 10
-8175.00125
 20
6796.721
 11
-4030.23575
 21
6796.721
  0
LINE
  8
┌▓È5
 10
-10675.00125
 20
6676.721
 11
-8175.00125
 21
6676.721
  0
LINE
  8
┌▓È5
 10
-10675.00125
 20
6796.721
 11
-8175.00125
 21
6796.721
  0
LINE
  8
┌▓È5
 10
-10675.00125
 20
5676.721
 11
-8175.00125
 21
5676.721
  0
LINE
  8
┌▓È5
 10
-10675.00125
 20
4676.721
 11
-8175.00125
 21
4676.721
  0
LINE
  8
┌▓È5
 10
-8175.00125
 20
6796.721
 11
-3175.0
 21
6796.721
  0
LINE
  8
┌▓È5
 10
-3175.0
 20
2796.721
 11
-3175.0
 21
6796.721
  0
LINE
  8
┌▓È5
 10
-5675.00075
 20
6676.721
 11
-5675.00075
 21
6176.721
  0
LINE
  8
┌▓È5
 10
-10795.00075
 20
2796.721
 11
-10795.00075
 21
6176.721
  0
LINE
  8
┌▓È5
 10
-8055.00125
 20
2796.721
 11
-8055.00125
 21
6176.721
  0
LINE
  8
┌▓È5
  6
DASHED
 10
-18175.0
 20
6676.721
 11
-21175.0
 21
6676.721
  0
LINE
  8
┌▓È5
  6
DASHED
 10
-21175.0
 20
6796.721
 11
-21175.0
 21
6676.721
  0
INSERT
  2
*GRP_0013
  8
┌▓È5
  6
DOT
 10
0.0
 20
0.0
  0
LINE
  8
┌▓È5
 10
-3175.0
 20
5926.721
 11
-3175.0
 21
6496.721
  0
LINE
  8
┌▓È5
 10
-925.0
 20
6676.721
 11
-925.0
 21
6176.721
  0
LINE
  8
┌▓È5
 10
-925.0
 20
6176.721
 11
-1020.0
 21
6176.721
  0
LINE
  8
┌▓È5
 10
-1020.0
 20
6676.721
 11
-1020.0
 21
6176.721
  0
LINE
  8
┌▓È5
 10
-1020.0
 20
6201.721
 11
-3175.0
 21
6201.721
  0
LINE
  8
┌▓È5
 10
-3175.0
 20
6692.3985
 11
-3175.0
 21
6201.721
  0
LINE
  8
┌▓È5
 10
-3295.0
 20
6676.721
 11
-8175.00125
 21
6676.721
  0
LINE
  8
┌▓È5
 10
-1020.0
 20
6226.721
 11
-3175.0
 21
6226.721
  0
LINE
  8
┌▓È5
 10
5759.2195
 20
6796.721
 11
3009.2195
 21
6796.721
  0
LINE
  8
┌▓È5
 10
5759.2195
 20
6176.721
 11
5639.2195
 21
6176.721
  0
LINE
  8
┌▓È5
 10
3509.2195
 20
6676.721
 11
3509.2195
 21
6176.721
  0
LINE
  8
┌▓È5
 10
3604.2195
 20
6226.721
 11
5639.2195
 21
6226.721
  0
LINE
  8
┌▓È5
 10
3604.2195
 20
6201.721
 11
5639.2195
 21
6201.721
  0
LINE
  8
┌▓È5
 10
3509.2195
 20
6176.721
 11
3604.2195
 21
6176.721
  0
LINE
  8
┌▓È5
 10
3604.2195
 20
6676.721
 11
3604.2195
 21
6176.721
  0
LINE
  8
┌▓È5
 10
5759.2195
 20
6176.721
 11
5759.2195
 21
6796.721
  0
LINE
  8
┌▓È5
 10
3009.2195
 20
6676.721
 11
5759.2195
 21
6676.721
  0
LINE
  8
┌▓È5
 10
8012.0145
 20
6176.721
 11
5759.2195
 21
6176.721
  0
LINE
  8
┌▓È5
 10
8012.0145
 20
6676.721
 11
5759.2195
 21
6676.721
  0
LINE
  8
┌▓È5
 10
8012.0145
 20
6796.721
 11
5759.2195
 21
6796.721
  0
LINE
  8
┌▓È5
 10
7892.0145
 20
2796.721
 11
7892.0145
 21
6176.721
  0
LINE
  8
┌▓È5
 10
23929.2195
 20
6676.721
 11
23929.2195
 21
2796.721
  0
LINE
  8
┌▓È5
 10
26059.2195
 20
6676.721
 11
26059.2195
 21
6176.721
  0
LINE
  8
┌▓È5
 10
26059.2195
 20
6176.721
 11
25964.2195
 21
6176.721
  0
LINE
  8
┌▓È5
 10
25964.2195
 20
6676.721
 11
25964.2195
 21
6176.721
  0
LINE
  8
┌▓È5
 10
26559.2195
 20
6676.721
 11
23809.2195
 21
6676.721
  0
LINE
  8
┌▓È5
 10
26559.2195
 20
6796.721
 11
23809.2195
 21
6796.721
  0
LINE
  8
┌▓È5
 10
23809.2195
 20
6226.721
 11
23809.2195
 21
6796.721
  0
LINE
  8
┌▓È5
 10
25964.2195
 20
6226.721
 11
23929.2195
 21
6226.721
  0
LINE
  8
┌▓È5
 10
25964.2195
 20
6201.721
 11
23809.2195
 21
6201.721
  0
LINE
  8
┌▓È5
 10
23809.2195
 20
6692.3985
 11
23809.2195
 21
6201.721
  0
LINE
  8
┌▓È5
 10
-17813.86875
 20
-12676.558
 11
-15313.86875
 21
-12676.558
  0
LINE
  8
┌▓È5
 10
-17813.86875
 20
-11751.558
 11
-15313.86875
 21
-11751.558
  0
LINE
  8
┌▓È5
 10
-10313.86875
 20
-10526.558
 11
-15313.86875
 21
-10526.558
  0
LINE
  8
┌▓È5
 10
-10313.86875
 20
-10406.558
 11
-15313.86875
 21
-10406.558
  0
LINE
  8
┌▓È5
 10
-17813.86875
 20
-10406.558
 11
-26313.86875
 21
-10406.558
  0
LINE
  8
┌▓È5
 10
-17813.86875
 20
-10526.558
 11
-26313.86875
 21
-10526.558
  0
LINE
  8
┌▓È5
 10
-17813.86875
 20
-11026.558
 11
-26313.86875
 21
-11026.558
  0
LINE
  8
┌▓È5
 10
-15313.86875
 20
-11026.558
 11
-10313.86875
 21
-11026.558
  0
LINE
  8
┌▓È5
 10
-12813.86875
 20
-10526.558
 11
-12813.86875
 21
-11026.558
  0
LINE
  8
┌▓È5
 10
-17813.86875
 20
-10526.558
 11
-15313.86875
 21
-10526.558
  0
LINE
  8
┌▓È5
 10
-17813.86875
 20
-10406.558
 11
-15313.86875
 21
-10406.558
  0
LINE
  8
┌▓È5
 10
-20313.86875
 20
-10526.558
 11
-20313.86875
 21
-11026.558
  0
LINE
  8
┌▓È5
 10
-26193.86875
 20
-14406.558
 11
-26193.86875
 21
-11026.558
  0
LINE
  8
┌▓È5
 10
-22933.86875
 20
-14406.558
 11
-22933.86875
 21
-11026.558
  0
LINE
  8
┌▓È5
 10
-22693.86875
 20
-14406.558
 11
-22693.86875
 21
-11026.558
  0
LINE
  8
┌▓È5
 10
-17933.86875
 20
-14406.558
 11
-17933.86875
 21
-11026.558
  0
LINE
  8
┌▓È5
 10
-15193.86875
 20
-14406.558
 11
-15193.86875
 21
-11026.558
  0
LINE
  8
┌▓È5
 10
-10433.86875
 20
-14406.558
 11
-10433.86875
 21
-11026.558
  0
LINE
  8
┌▓È5
 10
-3295.0
 20
6796.721
 11
-3295.0
 21
2796.721
  0
LINE
  8
┌▓È5
 10
11382.0145
 20
6476.721
 11
11382.0145
 21
2796.72125
  0
LINE
  8
┌▓È5
 10
11382.0145
 20
3096.721
 11
8012.0145
 21
3096.721
  0
LINE
  8
┌▓È5
 10
5760.89925
 20
-14106.55825
 11
9000.89975
 21
-14106.55825
  0
LINE
  8
┌▓È5
 10
20900.337
 20
17809.3375
 11
20876.0835
 21
17906.35175
  0
POLYLINE
  8
┌▓È5
 66
     1
 70
     1
  0
VERTEX
  8
┌▓È5
 10
20912.46375
 20
17966.98575
  0
VERTEX
  8
┌▓È5
 10
20863.95675
 20
17954.85875
  0
VERTEX
  8
┌▓È5
 10
20876.0835
 20
17906.35175
  0
VERTEX
  8
┌▓È5
 10
20924.5905
 20
17918.4785
  0
SEQEND
  0
LINE
  8
┌▓È5
 10
21900.337
 20
18162.41525
 11
20876.0835
 21
17906.35175
  0
LINE
  8
┌▓È5
 10
20914.88925
 20
17833.591
 11
20996.47775
 21
17915.83475
  0
LINE
  8
┌▓È5
 10
20996.47775
 20
17915.83475
 11
21017.093
 21
17833.3725
  0
LINE
  8
┌▓È5
 10
21780.80075
 20
18111.91575
 11
21801.416
 21
18029.45325
  0
LINE
  8
┌▓È5
 10
21901.54975
 20
18054.48675
 11
21780.80075
 21
18111.91575
  0
LINE
  8
┌▓È5
 10
21841.3775
 20
17809.3375
 11
21841.3775
 21
18039.44375
  0
LINE
  8
┌▓È5
 10
21841.3775
 20
17809.3375
 11
21899.04525
 21
18053.86075
  0
LINE
  8
┌▓È5
 10
-17813.86875
 20
-7781.55725
 11
-17813.86875
 21
-1056.558
  0
LINE
  8
┌▓È5
 10
-17693.86875
 20
-7781.55725
 11
-17693.86875
 21
-1056.558
  0
LINE
  8
┌▓È5
 10
-15433.868
 20
-7781.55725
 11
-15433.868
 21
-1056.558
  0
LINE
  8
┌▓È5
 10
-15313.868
 20
-7781.55725
 11
-15313.868
 21
-1056.558
  0
LINE
  8
┌▓È5
  6
CONTINUOUS
 10
-17813.86875
 20
-3656.558
 11
-22693.86875
 21
-3656.558
  0
LINE
  8
┌▓È5
  6
CONTINUOUS
 10
-17813.86875
 20
-3781.558
 11
-22693.86875
 21
-3781.558
  0
LINE
  8
┌▓È5
  6
CONTINUOUS
 10
-10433.86875
 20
-3656.558
 11
-15313.868
 21
-3656.558
  0
LINE
  8
┌▓È5
  6
CONTINUOUS
 10
-15433.868
 20
-3656.558
 11
-17693.86875
 21
-3656.558
  0
LINE
  8
┌▓È5
  6
CONTINUOUS
 10
-10433.86875
 20
-3781.558
 11
-15313.868
 21
-3781.558
  0
LINE
  8
┌▓È5
  6
CONTINUOUS
 10
-15433.868
 20
-3781.558
 11
-17693.86875
 21
-3781.558
  0
LINE
  8
┌▓È5
  6
CONTINUOUS
 10
-22693.86875
 20
-5031.55725
 11
-10433.86875
 21
-5031.55725
  0
LINE
  8
┌▓È5
 10
-813.86875
 20
-14156.558
 11
-3563.86875
 21
-14156.558
  0
LINE
  8
┌▓È5
 10
4509.2195
 20
2796.721
 11
4509.2195
 21
5864.06625
  0
LINE
  8
┌▓È5
 10
4509.2195
 20
5864.06625
 11
5639.2195
 21
6093.362
  0
LINE
  8
┌▓È5
 10
5639.2195
 20
6796.721
 11
5639.2195
 21
6093.362
  0
LINE
  8
┌▓È5
 10
5760.89925
 20
-11079.47975
 11
4480.8995
 21
-11339.213
  0
LINE
  8
┌▓È5
 10
4480.8995
 20
-14406.55825
 11
4480.8995
 21
-11339.213
  0
LINE
  8
┌▓È5
 10
-3295.0
 20
5864.06625
 11
-3175.0
 21
5864.06625
  0
LINE
  8
┌▓È5
 10
-8175.00125
 20
6176.721
 11
-3295.0
 21
6176.721
  0
LINE
  8
┌▓È5
 10
-3295.0
 20
6093.362
 11
-3175.0
 21
6093.362
  0
LINE
  8
┌▓È5
 10
-3683.86875
 20
-11339.213
 11
-3563.86875
 21
-11339.213
  0
LINE
  8
┌▓È5
 10
-3683.86875
 20
-11109.91725
 11
-3563.86875
 21
-11109.91725
  0
LINE
  8
┌▓È6
 10
-21461.13125
 20
12046.721
 11
-21461.13125
 21
7796.721
  0
LINE
  8
┌▓È6
 10
-22211.13125
 20
2796.721
 11
-22211.13125
 21
12796.721
  0
LINE
  8
┌▓È6
 10
-22211.13125
 20
2796.721
 11
-18461.13125
 21
2796.721
  0
LINE
  8
┌▓È6
 10
-19211.13125
 20
12046.721
 11
-19211.13125
 21
7796.721
  0
LINE
  8
┌▓È6
 10
-19211.13125
 20
12046.721
 11
-21461.13125
 21
12046.721
  0
LINE
  8
┌▓È6
 10
-21461.13125
 20
7796.721
 11
-19211.13125
 21
7796.721
  0
LINE
  8
┌▓È6
 10
-18461.13125
 20
12796.721
 11
-26036.13125
 21
12796.721
  0
LINE
  8
┌▓È6
 10
-18461.13125
 20
13296.721
 11
-26036.13125
 21
13296.721
  0
LINE
  8
┌▓È6
 10
-22336.13125
 20
2796.721
 11
-22336.13125
 21
12796.721
  0
LINE
  8
┌▓È6
 10
-18336.13125
 20
2796.721
 11
-18336.13125
 21
15421.721
  0
LINE
  8
┌▓È6
 10
-26036.13125
 20
15421.721
 11
-18336.13125
 21
15421.721
  0
LINE
  8
┌▓È6
 10
-26036.13125
 20
15296.721
 11
-18461.13125
 21
15296.721
  0
LINE
  8
┌▓È6
 10
-18461.13125
 20
2796.721
 11
-18461.13125
 21
15296.721
  0
LINE
  8
┌▓È6
 10
-17930.0
 20
7921.721
 11
-13430.0
 21
7921.721
  0
LINE
  8
┌▓È6
 10
-13305.0
 20
7796.721
 11
-18055.0
 21
7796.721
  0
LINE
  8
┌▓È6
 10
-13430.0
 20
7921.721
 11
-13430.0
 21
9296.72225
  0
LINE
  8
┌▓È6
 10
-13430.0
 20
9421.72175
 11
-13430.0
 21
10421.721
  0
LINE
  8
┌▓È6
 10
-13305.0
 20
10546.721
 11
-13305.0
 21
9421.72175
  0
LINE
  8
┌▓È6
 10
-13305.0
 20
9296.72225
 11
-13305.0
 21
7796.721
  0
LINE
  8
┌▓È6
 10
-17930.0
 20
7921.721
 11
-17930.0
 21
9296.72225
  0
LINE
  8
┌▓È6
 10
-17930.0
 20
9421.72175
 11
-17930.0
 21
10421.721
  0
LINE
  8
┌▓È6
 10
-18055.0
 20
10546.721
 11
-18055.0
 21
9421.72175
  0
LINE
  8
┌▓È6
 10
-18055.0
 20
9296.72225
 11
-18055.0
 21
7796.721
  0
LINE
  8
┌▓È6
 10
-13305.0
 20
10546.721
 11
-15552.5
 21
10546.721
  0
LINE
  8
┌▓È6
 10
-15672.5
 20
10546.721
 11
-18055.0
 21
10546.721
  0
LINE
  8
┌▓È6
 10
-17930.0
 20
10421.721
 11
-15672.5
 21
10421.721
  0
LINE
  8
┌▓È6
 10
-15552.5
 20
10421.721
 11
-13430.0
 21
10421.721
  0
LINE
  8
┌▓È6
 10
25809.2195
 20
10796.72175
 11
25559.2195
 21
12171.721
  0
LINE
  8
┌▓È6
 10
25559.2195
 20
16146.721
 11
25559.2195
 21
12171.721
  0
LINE
  8
┌▓È6
 10
25809.2195
 20
9421.72175
 11
25809.2195
 21
10796.72175
  0
POLYLINE
  8
┌▓È6
  6
DOT
 66
     1
 70
     1
  0
VERTEX
  8
┌▓È6
 10
-10629.86175
 20
-11367.63225
  0
VERTEX
  8
┌▓È6
 10
-12129.86175
 20
-11367.63225
  0
VERTEX
  8
┌▓È6
 10
-12129.86175
 20
-14406.558
  0
VERTEX
  8
┌▓È6
 10
-10629.86175
 20
-14406.558
  0
SEQEND
  0
LINE
  8
┌▓È6
 10
24160.89925
 20
-1281.558
 11
19410.89925
 21
-1281.558
  0
LINE
  8
┌▓È6
 10
24035.89925
 20
-1406.558
 11
24035.89925
 21
-8906.558
  0
LINE
  8
┌▓È6
 10
23785.89925
 20
-1656.558
 11
19785.89925
 21
-1656.558
  0
LINE
  8
┌▓È6
 10
24035.89925
 20
-1406.558
 11
19535.89925
 21
-1406.558
  0
LINE
  8
┌▓È6
 10
24035.89925
 20
-8906.558
 11
19535.89925
 21
-8906.558
  0
LINE
  8
┌▓È6
 10
19535.89925
 20
-1406.558
 11
19535.89925
 21
-8906.558
  0
LINE
  8
┌▓È6
 10
24160.89925
 20
-9031.558
 11
19410.89925
 21
-9031.558
  0
LINE
  8
┌▓È6
 10
24035.89925
 20
-5156.558
 11
19535.89925
 21
-5156.558
  0
LINE
  8
┌▓È6
 10
23785.89925
 20
-5156.558
 11
23785.89925
 21
-8656.558
  0
LINE
  8
┌▓È6
 10
19785.89925
 20
-1656.558
 11
19785.89925
 21
-4906.558
  0
LINE
  8
┌▓È6
 10
23785.89925
 20
-1656.558
 11
23785.89925
 21
-4906.558
  0
LINE
  8
┌▓È6
 10
19785.89925
 20
-4906.558
 11
23785.89925
 21
-4906.558
  0
LINE
  8
┌▓È6
 10
19785.89925
 20
-5156.558
 11
19785.89925
 21
-8656.558
  0
LINE
  8
┌▓È6
 10
23785.89925
 20
-8656.558
 11
19785.89925
 21
-8656.558
  0
LINE
  8
┌▓È6
 10
24160.89925
 20
-9031.558
 11
24160.89925
 21
-1281.558
  0
LINE
  8
┌▓È6
 10
24160.89925
 20
-1281.558
 11
19410.89925
 21
-1281.558
  0
LINE
  8
┌▓È6
 10
19410.89925
 20
-9031.558
 11
19410.89925
 21
-1281.558
  0
LINE
  8
┌▓È6
 10
-1563.86875
 20
-6106.5585
 11
-1813.86875
 21
-4731.55925
  0
LINE
  8
┌▓È6
 10
-1563.86875
 20
-7481.5585
 11
-1563.86875
 21
-6106.5585
  0
LINE
  8
┌▓È6
 10
-1813.86875
 20
-1056.558
 11
-1813.86875
 21
-4731.55925
  0
LINE
  8
┌▓È6
 10
-3200.94875
 20
22953.55225
 11
-2950.94875
 21
24328.5515
  0
LINE
  8
┌▓È6
 10
-3200.94875
 20
21578.55225
 11
-3200.94875
 21
22953.55225
  0
LINE
  8
┌▓È6
 10
-2950.94875
 20
28003.55275
 11
-2950.94875
 21
24328.5515
  0
LINE
  8
┌▓È6
  6
DOT
 10
18510.8985
 20
-8031.558
 11
17010.8985
 21
-8031.558
  0
LINE
  8
┌▓È6
  6
DOT
 10
18510.8985
 20
-4781.558
 11
18510.8985
 21
-8031.558
  0
LINE
  8
┌▓È6
  6
DOT
 10
17010.8985
 20
-8031.558
 11
17010.8985
 21
-4781.558
  0
LINE
  8
┌▓È6
  6
DOT
 10
18510.8985
 20
-4781.558
 11
17010.8985
 21
-4781.558
  0
LINE
  8
┌▓È6
  6
DOT
 10
9510.89925
 20
-8031.558
 11
8010.89925
 21
-8031.558
  0
LINE
  8
┌▓È6
  6
DOT
 10
9510.89925
 20
-4781.558
 11
9510.89925
 21
-8031.558
  0
LINE
  8
┌▓È6
  6
DOT
 10
8010.89925
 20
-8031.558
 11
8010.89925
 21
-4781.558
  0
LINE
  8
┌▓È6
  6
DOT
 10
9510.89925
 20
-4781.558
 11
8010.89925
 21
-4781.558
  0
POLYLINE
  8
┌▓È6
  6
DOT
 66
     1
 70
     1
  0
VERTEX
  8
┌▓È6
 10
-18129.86175
 20
-11367.63225
  0
VERTEX
  8
┌▓È6
 10
-19629.86175
 20
-11367.63225
  0
VERTEX
  8
┌▓È6
 10
-19629.86175
 20
-14406.558
  0
VERTEX
  8
┌▓È6
 10
-18129.86175
 20
-14406.558
  0
SEQEND
  0
LINE
  8
┌▓È6
  6
DOT
 10
-3313.86875
 20
-10726.558
 11
-3313.86875
 21
-10106.558
  0
ARC
  8
┌▓È6
 10
-3063.868824
 20
-10856.55825
 40
250.0
 50
180.0
 51
270.0
  0
LINE
  8
┌▓È6
 10
-3313.86875
 20
-10856.558
 11
-3313.86875
 21
-10726.558
  0
LINE
  8
┌▓È6
 10
-3063.86875
 20
-11106.558
 11
-1563.86875
 21
-11106.558
  0
ARC
  8
┌▓È6
 10
-1563.868449
 20
-10856.55825
 40
250.0
 50
270.0
 51
360.0
  0
LINE
  8
┌▓È6
 10
-1313.868
 20
-10856.558
 11
-1313.868
 21
-10726.558
  0
LINE
  8
┌▓È6
  6
DOT
 10
-1313.868
 20
-10726.558
 11
-1313.868
 21
-10106.558
  0
LINE
  8
┌▓È6
  6
DASHED
 10
3760.89925
 20
-6106.5585
 11
4010.89925
 21
-4731.55925
  0
LINE
  8
┌▓È6
  6
DASHED
 10
3760.89925
 20
-7481.5585
 11
3760.89925
 21
-6106.5585
  0
LINE
  8
┌▓È6
  6
DASHED
 10
4010.89925
 20
-1056.558
 11
4010.89925
 21
-4731.55925
  0
LINE
  8
┌▓È6
  6
DOT
 10
24310.89925
 20
-7406.558
 11
24310.89925
 21
-14406.558
  0
LINE
  8
┌▓È6
  6
DOT
 10
24310.89925
 20
-7406.558
 11
27510.89925
 21
-7406.558
  0
LINE
  8
┌▓È6
  6
DOT
 10
-22586.13125
 20
2796.721
 11
-22586.13125
 21
9796.721
  0
LINE
  8
┌▓È6
  6
DOT
 10
-22586.13125
 20
9796.721
 11
-25836.13125
 21
9796.721
  0
LINE
  8
┌▓È6
  6
DOT
 10
-25836.13125
 20
2796.721
 11
-25836.13125
 21
9796.721
  0
LINE
  8
┌▓È6
 10
17812.01375
 20
2796.721
 11
17812.01375
 21
12921.721
  0
LINE
  8
┌▓È6
 10
17937.01375
 20
2796.721
 11
17937.01375
 21
12796.721
  0
LINE
  8
┌▓È6
 10
22587.01375
 20
12046.721
 11
22587.01375
 21
7796.721
  0
LINE
  8
┌▓È6
 10
18937.01375
 20
12046.721
 11
18937.01375
 21
7796.721
  0
LINE
  8
┌▓È6
 10
18937.01375
 20
12046.721
 11
22587.01375
 21
12046.721
  0
LINE
  8
┌▓È6
 10
22587.01375
 20
7796.721
 11
18937.01375
 21
7796.721
  0
LINE
  8
┌▓È6
  6
DOT
 10
11262.0145
 20
6476.721
 11
11262.0145
 21
7096.721
  0
LINE
  8
┌▓È6
  6
DOT
 10
8262.0145
 20
6476.721
 11
8262.0145
 21
7096.721
  0
ARC
  8
┌▓È6
 10
11012.015178
 20
6346.72075
 40
250.0
 50
270.0
 51
360.0
  0
LINE
  8
┌▓È6
 10
11012.0145
 20
6096.721
 11
8512.0145
 21
6096.721
  0
ARC
  8
┌▓È6
 10
8512.014803
 20
6346.72075
 40
250.0
 50
180.0
 51
270.0
  0
LINE
  8
┌▓È6
 10
11262.0145
 20
6346.721
 11
11262.0145
 21
6476.721
  0
LINE
  8
┌▓È6
 10
8262.0145
 20
6346.721
 11
8262.0145
 21
6476.721
  0
POLYLINE
  8
┌▓È6
 66
     1
 70
     1
  0
VERTEX
  8
┌▓È6
 10
12649.097
 20
6888.1155
  0
VERTEX
  8
┌▓È6
 10
13149.0975
 20
6888.1155
  0
VERTEX
  8
┌▓È6
 10
13149.0975
 20
6738.1155
  0
VERTEX
  8
┌▓È6
 10
12649.097
 20
6738.1155
  0
SEQEND
  0
POLYLINE
  8
┌▓È6
 66
     1
 70
     1
  0
VERTEX
  8
┌▓È6
 10
15391.04125
 20
6888.1155
  0
VERTEX
  8
┌▓È6
 10
15891.042
 20
6888.1155
  0
VERTEX
  8
┌▓È6
 10
15891.042
 20
6738.1155
  0
VERTEX
  8
┌▓È6
 10
15391.04125
 20
6738.1155
  0
SEQEND
  0
LINE
  8
┌▓È6
  6
DASHDOT
 10
2010.89925
 20
-9526.55825
 11
2890.8995
 21
-14406.558
  0
LINE
  8
┌▓È6
  6
DASHDOT
 10
2890.8995
 20
-9526.55825
 11
2010.89925
 21
-14406.558
  0
LINE
  8
┌▓È6
 10
3605.8995
 20
-10251.55825
 11
5640.8995
 21
-10251.55825
  0
POLYLINE
  8
┌▓È6
  6
DOT
 66
     1
 70
     1
  0
VERTEX
  8
┌▓È6
 10
5609.95875
 20
-10532.7145
  0
VERTEX
  8
┌▓È6
 10
3655.22
 20
-10532.7145
  0
VERTEX
  8
┌▓È6
 10
3655.22
 20
-10603.16325
  0
VERTEX
  8
┌▓È6
 10
5609.95875
 20
-10603.16325
  0
SEQEND
  0
LINE
  8
┌▓È6
 10
23584.2195
 20
2796.721
 11
17937.01375
 21
2796.721
  0
LINE
  8
┌▓È6
 10
23709.2195
 20
12921.721
 11
17812.01375
 21
12921.721
  0
LINE
  8
┌▓È6
 10
17937.01375
 20
12796.721
 11
23584.2195
 21
12796.721
  0
LINE
  8
┌▓È6
 10
23709.2195
 20
12921.721
 11
23709.2195
 21
2796.721
  0
LINE
  8
┌▓È6
 10
23584.2195
 20
12796.721
 11
23584.2195
 21
2796.721
  0
LINE
  8
┌▓È6
  6
DASHED
 10
-1425.0
 20
16146.721
 11
-1425.0
 21
12171.721
  0
LINE
  8
┌▓È6
  6
DASHED
 10
-1175.0
 20
9421.72175
 11
-1175.0
 21
10796.72175
  0
LINE
  8
┌▓È6
  6
DASHED
 10
4009.2195
 20
16146.721
 11
4009.2195
 21
12171.721
  0
LINE
  8
┌▓È6
  6
DASHED
 10
3759.2195
 20
9421.72175
 11
3759.2195
 21
10796.72175
  0
LINE
  8
┌▓È6
  6
DASHED
 10
-1175.0
 20
10796.72175
 11
-1425.0
 21
12046.72175
  0
LINE
  8
┌▓È6
  6
DASHED
 10
3759.2195
 20
10796.72175
 11
4009.2195
 21
12046.72175
  0
LINE
  8
┌▓È6
  6
DOT
 10
5880.89925
 20
-10726.55825
 11
5880.89925
 21
-10106.55825
  0
LINE
  8
┌▓È6
  6
DOT
 10
5880.89925
 20
-14406.558
 11
5880.89925
 21
-10726.55825
  0
POLYLINE
  8
┌▓È6
 66
     1
 70
     1
  0
VERTEX
  8
┌▓È6
 10
-17175.0
 20
6588.1155
  0
VERTEX
  8
┌▓È6
 10
-16675.0
 20
6588.1155
  0
VERTEX
  8
┌▓È6
 10
-16675.0
 20
6438.1155
  0
VERTEX
  8
┌▓È6
 10
-17175.0
 20
6438.1155
  0
SEQEND
  0
POLYLINE
  8
┌▓È6
 66
     1
 70
     1
  0
VERTEX
  8
┌▓È6
 10
-14675.0
 20
6588.1155
  0
VERTEX
  8
┌▓È6
 10
-14175.0
 20
6588.1155
  0
VERTEX
  8
┌▓È6
 10
-14175.0
 20
6438.1155
  0
VERTEX
  8
┌▓È6
 10
-14675.0
 20
6438.1155
  0
SEQEND
  0
POLYLINE
  8
┌▓È6
 66
     1
 70
     1
  0
VERTEX
  8
┌▓È6
 10
-12175.00075
 20
6588.1155
  0
VERTEX
  8
┌▓È6
 10
-11675.00075
 20
6588.1155
  0
VERTEX
  8
┌▓È6
 10
-11675.00075
 20
6438.1155
  0
VERTEX
  8
┌▓È6
 10
-12175.00075
 20
6438.1155
  0
SEQEND
  0
POLYLINE
  8
┌▓È6
 66
     1
 70
     1
  0
VERTEX
  8
┌▓È6
 10
-9175.00125
 20
6588.1155
  0
VERTEX
  8
┌▓È6
 10
-9675.00125
 20
6588.1155
  0
VERTEX
  8
┌▓È6
 10
-9675.00125
 20
6438.1155
  0
VERTEX
  8
┌▓È6
 10
-9175.00125
 20
6438.1155
  0
SEQEND
  0
POLYLINE
  8
┌▓È6
 66
     1
 70
     1
  0
VERTEX
  8
┌▓È6
 10
-9175.00125
 20
5588.1155
  0
VERTEX
  8
┌▓È6
 10
-9675.00125
 20
5588.1155
  0
VERTEX
  8
┌▓È6
 10
-9675.00125
 20
5438.1155
  0
VERTEX
  8
┌▓È6
 10
-9175.00125
 20
5438.1155
  0
SEQEND
  0
POLYLINE
  8
┌▓È6
 66
     1
 70
     1
  0
VERTEX
  8
┌▓È6
 10
-9175.00125
 20
4588.1155
  0
VERTEX
  8
┌▓È6
 10
-9675.00125
 20
4588.1155
  0
VERTEX
  8
┌▓È6
 10
-9675.00125
 20
4438.1155
  0
VERTEX
  8
┌▓È6
 10
-9175.00125
 20
4438.1155
  0
SEQEND
  0
POLYLINE
  8
┌▓È6
  6
DOT
 66
     1
 70
     1
  0
VERTEX
  8
┌▓È6
 10
-10990.99375
 20
5835.64675
  0
VERTEX
  8
┌▓È6
 10
-12490.99375
 20
5835.64675
  0
VERTEX
  8
┌▓È6
 10
-12490.99375
 20
2796.721
  0
VERTEX
  8
┌▓È6
 10
-10990.99375
 20
2796.721
  0
SEQEND
  0
POLYLINE
  8
┌▓È6
  6
DOT
 66
     1
 70
     1
  0
VERTEX
  8
┌▓È6
 10
-3370.99325
 20
5835.64675
  0
VERTEX
  8
┌▓È6
 10
-4870.99325
 20
5835.64675
  0
VERTEX
  8
┌▓È6
 10
-4870.99325
 20
2796.721
  0
VERTEX
  8
┌▓È6
 10
-3370.99325
 20
2796.721
  0
SEQEND
  0
POLYLINE
  8
┌▓È6
 66
     1
 70
     1
  0
VERTEX
  8
┌▓È6
 10
-4735.00125
 20
6588.1155
  0
VERTEX
  8
┌▓È6
 10
-4235.00075
 20
6588.1155
  0
VERTEX
  8
┌▓È6
 10
-4235.00075
 20
6438.1155
  0
VERTEX
  8
┌▓È6
 10
-4735.00125
 20
6438.1155
  0
SEQEND
  0
POLYLINE
  8
┌▓È6
 66
     1
 70
     1
  0
VERTEX
  8
┌▓È6
 10
-7115.00075
 20
6588.1155
  0
VERTEX
  8
┌▓È6
 10
-6615.00075
 20
6588.1155
  0
VERTEX
  8
┌▓È6
 10
-6615.00075
 20
6438.1155
  0
VERTEX
  8
┌▓È6
 10
-7115.00075
 20
6438.1155
  0
SEQEND
  0
LINE
  8
┌▓È6
  6
DOT
 10
-8295.00125
 20
2796.721
 11
-8295.00125
 21
6676.721
  0
LINE
  8
┌▓È6
  6
DOT
 10
-10555.00075
 20
2796.721
 11
-10555.00075
 21
6676.721
  0
LINE
  8
┌▓È6
 10
-1020.0
 20
6651.721
 11
-3175.0
 21
6651.721
  0
POLYLINE
  8
┌▓È6
  6
DOT
 66
     1
 70
     1
  0
VERTEX
  8
┌▓È6
 10
-3144.0595
 20
6370.56475
  0
VERTEX
  8
┌▓È6
 10
-1069.32075
 20
6370.56475
  0
VERTEX
  8
┌▓È6
 10
-1069.32075
 20
6300.116
  0
VERTEX
  8
┌▓È6
 10
-3144.0595
 20
6300.116
  0
SEQEND
  0
LINE
  8
┌▓È6
 10
3604.2195
 20
6651.721
 11
5639.2195
 21
6651.721
  0
POLYLINE
  8
┌▓È6
  6
DOT
 66
     1
 70
     1
  0
VERTEX
  8
┌▓È6
 10
5608.27875
 20
6370.56475
  0
VERTEX
  8
┌▓È6
 10
3653.54
 20
6370.56475
  0
VERTEX
  8
┌▓È6
 10
3653.54
 20
6300.116
  0
VERTEX
  8
┌▓È6
 10
5608.27875
 20
6300.116
  0
SEQEND
  0
LINE
  8
┌▓È6
 10
25964.2195
 20
6651.721
 11
23929.2195
 21
6651.721
  0
POLYLINE
  8
┌▓È6
  6
DOT
 66
     1
 70
     1
  0
VERTEX
  8
┌▓È6
 10
23960.16
 20
6370.56475
  0
VERTEX
  8
┌▓È6
 10
25914.89875
 20
6370.56475
  0
VERTEX
  8
┌▓È6
 10
25914.89875
 20
6300.116
  0
VERTEX
  8
┌▓È6
 10
23960.16
 20
6300.116
  0
SEQEND
  0
POLYLINE
  8
┌▓È6
 66
     1
 70
     1
  0
VERTEX
  8
┌▓È6
 10
-16313.86875
 20
-12765.1635
  0
VERTEX
  8
┌▓È6
 10
-16813.86875
 20
-12765.1635
  0
VERTEX
  8
┌▓È6
 10
-16813.86875
 20
-12915.1635
  0
VERTEX
  8
┌▓È6
 10
-16313.86875
 20
-12915.1635
  0
SEQEND
  0
POLYLINE
  8
┌▓È6
 66
     1
 70
     1
  0
VERTEX
  8
┌▓È6
 10
-16313.86875
 20
-11840.1635
  0
VERTEX
  8
┌▓È6
 10
-16813.86875
 20
-11840.1635
  0
VERTEX
  8
┌▓È6
 10
-16813.86875
 20
-11990.1635
  0
VERTEX
  8
┌▓È6
 10
-16313.86875
 20
-11990.1635
  0
SEQEND
  0
POLYLINE
  8
┌▓È6
 66
     1
 70
     1
  0
VERTEX
  8
┌▓È6
 10
-13813.86875
 20
-10615.1635
  0
VERTEX
  8
┌▓È6
 10
-14313.86925
 20
-10615.1635
  0
VERTEX
  8
┌▓È6
 10
-14313.86925
 20
-10765.1635
  0
VERTEX
  8
┌▓È6
 10
-13813.86875
 20
-10765.1635
  0
SEQEND
  0
POLYLINE
  8
┌▓È6
 66
     1
 70
     1
  0
VERTEX
  8
┌▓È6
 10
-11313.86875
 20
-10615.1635
  0
VERTEX
  8
┌▓È6
 10
-11813.86925
 20
-10615.1635
  0
VERTEX
  8
┌▓È6
 10
-11813.86925
 20
-10765.1635
  0
VERTEX
  8
┌▓È6
 10
-11313.86875
 20
-10765.1635
  0
SEQEND
  0
POLYLINE
  8
┌▓È6
 66
     1
 70
     1
  0
VERTEX
  8
┌▓È6
 10
-16313.86875
 20
-10615.1635
  0
VERTEX
  8
┌▓È6
 10
-16813.86875
 20
-10615.1635
  0
VERTEX
  8
┌▓È6
 10
-16813.86875
 20
-10765.1635
  0
VERTEX
  8
┌▓È6
 10
-16313.86875
 20
-10765.1635
  0
SEQEND
  0
POLYLINE
  8
┌▓È6
 66
     1
 70
     1
  0
VERTEX
  8
┌▓È6
 10
-18813.86875
 20
-10615.1635
  0
VERTEX
  8
┌▓È6
 10
-19313.8695
 20
-10615.1635
  0
VERTEX
  8
┌▓È6
 10
-19313.8695
 20
-10765.1635
  0
VERTEX
  8
┌▓È6
 10
-18813.86875
 20
-10765.1635
  0
SEQEND
  0
POLYLINE
  8
┌▓È6
 66
     1
 70
     1
  0
VERTEX
  8
┌▓È6
 10
-21313.86875
 20
-10615.1635
  0
VERTEX
  8
┌▓È6
 10
-21813.86925
 20
-10615.1635
  0
VERTEX
  8
┌▓È6
 10
-21813.86925
 20
-10765.1635
  0
VERTEX
  8
┌▓È6
 10
-21313.86875
 20
-10765.1635
  0
SEQEND
  0
POLYLINE
  8
┌▓È6
 66
     1
 70
     1
  0
VERTEX
  8
┌▓È6
 10
-24313.86875
 20
-10615.1635
  0
VERTEX
  8
┌▓È6
 10
-24813.8695
 20
-10615.1635
  0
VERTEX
  8
┌▓È6
 10
-24813.8695
 20
-10765.1635
  0
VERTEX
  8
┌▓È6
 10
-24313.86875
 20
-10765.1635
  0
SEQEND
  0
LINE
  8
┌▓È6
  6
DOT
 10
-17693.86875
 20
-14406.558
 11
-17693.86875
 21
-10526.558
  0
LINE
  8
┌▓È6
  6
DOT
 10
-15433.86875
 20
-14406.558
 11
-15433.86875
 21
-10526.558
  0
LINE
  8
┌▓È6
  6
DOT
 10
11262.0145
 20
2796.72125
 11
11262.0145
 21
6476.721
  0
LINE
  8
┌▓È6
  6
DOT
 10
8132.014
 20
2796.72125
 11
8132.014
 21
6476.721
  0
POLYLINE
  8
┌▓È6
  6
DASHDOT
 66
     1
  0
VERTEX
  8
┌▓È6
 10
11382.0145
 20
6476.721
  0
VERTEX
  8
┌▓È6
 10
8012.0145
 20
4786.721
  0
VERTEX
  8
┌▓È6
 10
11382.0145
 20
3096.721
  0
SEQEND
  0
LINE
  8
┌▓È6
  6
DOT
 10
3496.07425
 20
-10726.55825
 11
3496.07425
 21
-10106.55825
  0
POLYLINE
  8
┌▓È6
  6
DASHDOT
 66
     1
  0
VERTEX
  8
┌▓È6
 10
9000.89975
 20
-10726.55825
  0
VERTEX
  8
┌▓È6
 10
5760.89925
 20
-12416.55825
  0
VERTEX
  8
┌▓È6
 10
9000.89975
 20
-14106.55825
  0
SEQEND
  0
LINE
  8
┌▓È6
  6
DOT
 10
3496.07425
 20
-10856.55825
 11
3496.07425
 21
-10726.55825
  0
ARC
  8
┌▓È6
  6
DOT
 10
3746.074107
 20
-10856.558482
 40
250.0
 50
180.0
 51
270.0
  0
LINE
  8
┌▓È6
 10
10812.0145
 20
8146.721
 11
16812.01375
 21
8146.721
  0
LINE
  8
┌▓È6
 10
10812.0145
 20
8146.721
 11
10812.0145
 21
7796.721
  0
LINE
  8
┌▓È6
 10
16812.01375
 20
8146.721
 11
16812.01375
 21
7796.721
  0
LINE
  8
┌▓È6
 10
10812.0145
 20
7946.721
 11
16812.01375
 21
7946.721
  0
LINE
  8
┌▓È6
 10
10812.0145
 20
7896.721
 11
16812.01375
 21
7896.721
  0
LINE
  8
┌▓È6
 10
10010.89925
 20
-9056.55725
 11
10010.89925
 21
-9406.55725
  0
LINE
  8
┌▓È6
 10
10010.89925
 20
-9056.55725
 11
16510.8985
 21
-9056.55725
  0
LINE
  8
┌▓È6
 10
16510.8985
 20
-9056.55725
 11
16510.8985
 21
-9406.55725
  0
LINE
  8
┌▓È6
 10
10010.89925
 20
-9256.55725
 11
16510.8985
 21
-9256.55725
  0
LINE
  8
┌▓È6
 10
10010.89925
 20
-9306.55725
 11
16510.8985
 21
-9306.55725
  0
POLYLINE
  8
┌▓È6
 66
     1
 70
     1
  0
VERTEX
  8
┌▓È6
 10
-25566.83175
 20
-17244.3465
  0
VERTEX
  8
┌▓È6
 10
-26416.83175
 20
-17244.3465
  0
VERTEX
  8
┌▓È6
 10
-26416.83175
 20
-18094.3465
  0
VERTEX
  8
┌▓È6
 10
-25566.83175
 20
-18094.3465
  0
SEQEND
  0
CIRCLE
  8
┌▓È6
 10
-25991.83175
 20
-17669.3465
 40
262.5
  0
POLYLINE
  8
┌▓È6
 66
     1
 70
     1
  0
VERTEX
  8
┌▓È6
 10
-24191.83175
 20
-17494.3465
  0
VERTEX
  8
┌▓È6
 10
-24441.83175
 20
-17494.3465
  0
VERTEX
  8
┌▓È6
 10
-24441.83175
 20
-17844.3465
  0
VERTEX
  8
┌▓È6
 10
-24191.83175
 20
-17844.3465
  0
SEQEND
  0
POLYLINE
  8
┌▓È6
 66
     1
 70
     1
  0
VERTEX
  8
┌▓È6
 10
-23691.83175
 20
-17494.3465
  0
VERTEX
  8
┌▓È6
 10
-23941.83175
 20
-17494.3465
  0
VERTEX
  8
┌▓È6
 10
-23941.83175
 20
-17844.3465
  0
VERTEX
  8
┌▓È6
 10
-23691.83175
 20
-17844.3465
  0
SEQEND
  0
POLYLINE
  8
┌▓È6
 66
     1
 70
     1
  0
VERTEX
  8
┌▓È6
 10
-23191.83175
 20
-17494.3465
  0
VERTEX
  8
┌▓È6
 10
-23441.83175
 20
-17494.3465
  0
VERTEX
  8
┌▓È6
 10
-23441.83175
 20
-17844.3465
  0
VERTEX
  8
┌▓È6
 10
-23191.83175
 20
-17844.3465
  0
SEQEND
  0
POLYLINE
  8
┌▓È6
 66
     1
 70
     1
  0
VERTEX
  8
┌▓È6
 10
-20438.86875
 20
-9481.558
  0
VERTEX
  8
┌▓È6
 10
-21288.86875
 20
-9481.558
  0
VERTEX
  8
┌▓È6
 10
-21288.86875
 20
-10331.558
  0
VERTEX
  8
┌▓È6
 10
-20438.86875
 20
-10331.558
  0
SEQEND
  0
CIRCLE
  8
┌▓È6
 10
-20863.86875
 20
-9906.558
 40
262.5
  0
POLYLINE
  8
┌▓È6
 66
     1
 70
     1
  0
VERTEX
  8
┌▓È6
 10
-19063.86875
 20
-9731.558
  0
VERTEX
  8
┌▓È6
 10
-19313.86875
 20
-9731.558
  0
VERTEX
  8
┌▓È6
 10
-19313.86875
 20
-10081.558
  0
VERTEX
  8
┌▓È6
 10
-19063.86875
 20
-10081.558
  0
SEQEND
  0
POLYLINE
  8
┌▓È6
 66
     1
 70
     1
  0
VERTEX
  8
┌▓È6
 10
-18563.86875
 20
-9731.558
  0
VERTEX
  8
┌▓È6
 10
-18813.86875
 20
-9731.558
  0
VERTEX
  8
┌▓È6
 10
-18813.86875
 20
-10081.558
  0
VERTEX
  8
┌▓È6
 10
-18563.86875
 20
-10081.558
  0
SEQEND
  0
POLYLINE
  8
┌▓È6
 66
     1
 70
     1
  0
VERTEX
  8
┌▓È6
 10
-18063.86875
 20
-9731.558
  0
VERTEX
  8
┌▓È6
 10
-18313.86875
 20
-9731.558
  0
VERTEX
  8
┌▓È6
 10
-18313.86875
 20
-10081.558
  0
VERTEX
  8
┌▓È6
 10
-18063.86875
 20
-10081.558
  0
SEQEND
  0
POLYLINE
  8
┌▓È6
 66
     1
 70
     1
  0
VERTEX
  8
┌▓È6
 10
-12938.86875
 20
-9481.558
  0
VERTEX
  8
┌▓È6
 10
-13788.86875
 20
-9481.558
  0
VERTEX
  8
┌▓È6
 10
-13788.86875
 20
-10331.558
  0
VERTEX
  8
┌▓È6
 10
-12938.86875
 20
-10331.558
  0
SEQEND
  0
CIRCLE
  8
┌▓È6
 10
-13363.86875
 20
-9906.558
 40
262.5
  0
POLYLINE
  8
┌▓È6
 66
     1
 70
     1
  0
VERTEX
  8
┌▓È6
 10
-11563.86875
 20
-9731.558
  0
VERTEX
  8
┌▓È6
 10
-11813.86875
 20
-9731.558
  0
VERTEX
  8
┌▓È6
 10
-11813.86875
 20
-10081.558
  0
VERTEX
  8
┌▓È6
 10
-11563.86875
 20
-10081.558
  0
SEQEND
  0
POLYLINE
  8
┌▓È6
 66
     1
 70
     1
  0
VERTEX
  8
┌▓È6
 10
-11063.86875
 20
-9731.558
  0
VERTEX
  8
┌▓È6
 10
-11313.86875
 20
-9731.558
  0
VERTEX
  8
┌▓È6
 10
-11313.86875
 20
-10081.558
  0
VERTEX
  8
┌▓È6
 10
-11063.86875
 20
-10081.558
  0
SEQEND
  0
POLYLINE
  8
┌▓È6
 66
     1
 70
     1
  0
VERTEX
  8
┌▓È6
 10
-10563.86875
 20
-9731.558
  0
VERTEX
  8
┌▓È6
 10
-10813.86875
 20
-9731.558
  0
VERTEX
  8
┌▓È6
 10
-10813.86875
 20
-10081.558
  0
VERTEX
  8
┌▓È6
 10
-10563.86875
 20
-10081.558
  0
SEQEND
  0
POLYLINE
  8
┌▓È6
 66
     1
 70
     1
  0
VERTEX
  8
┌▓È6
 10
-4813.86875
 20
-9581.558
  0
VERTEX
  8
┌▓È6
 10
-5063.86875
 20
-9581.558
  0
VERTEX
  8
┌▓È6
 10
-5063.86875
 20
-9931.558
  0
VERTEX
  8
┌▓È6
 10
-4813.86875
 20
-9931.558
  0
SEQEND
  0
POLYLINE
  8
┌▓È6
 66
     1
 70
     1
  0
VERTEX
  8
┌▓È6
 10
-4313.86875
 20
-9581.558
  0
VERTEX
  8
┌▓È6
 10
-4563.86875
 20
-9581.558
  0
VERTEX
  8
┌▓È6
 10
-4563.86875
 20
-9931.558
  0
VERTEX
  8
┌▓È6
 10
-4313.86875
 20
-9931.558
  0
SEQEND
  0
POLYLINE
  8
┌▓È6
 66
     1
 70
     1
  0
VERTEX
  8
┌▓È6
 10
-3813.86875
 20
-9581.558
  0
VERTEX
  8
┌▓È6
 10
-4063.86875
 20
-9581.558
  0
VERTEX
  8
┌▓È6
 10
-4063.86875
 20
-9931.558
  0
VERTEX
  8
┌▓È6
 10
-3813.86875
 20
-9931.558
  0
SEQEND
  0
POLYLINE
  8
┌▓È6
 66
     1
 70
     1
  0
VERTEX
  8
┌▓È6
 10
-6188.86875
 20
-9406.558
  0
VERTEX
  8
┌▓È6
 10
-6888.86875
 20
-9406.558
  0
VERTEX
  8
┌▓È6
 10
-6888.86875
 20
-10106.558
  0
VERTEX
  8
┌▓È6
 10
-6188.86875
 20
-10106.558
  0
SEQEND
  0
CIRCLE
  8
┌▓È6
 10
-6538.86875
 20
-9756.558
 40
237.5
  0
POLYLINE
  8
┌▓È6
 66
     1
 70
     1
  0
VERTEX
  8
┌▓È6
 10
-13300.00075
 20
7721.721
  0
VERTEX
  8
┌▓È6
 10
-14150.00075
 20
7721.721
  0
VERTEX
  8
┌▓È6
 10
-14150.00075
 20
6871.721
  0
VERTEX
  8
┌▓È6
 10
-13300.00075
 20
6871.721
  0
SEQEND
  0
CIRCLE
  8
┌▓È6
 10
-13725.00075
 20
7296.721
 40
262.5
  0
POLYLINE
  8
┌▓È6
 66
     1
 70
     1
  0
VERTEX
  8
┌▓È6
 10
-11925.00075
 20
7471.721
  0
VERTEX
  8
┌▓È6
 10
-12175.00075
 20
7471.721
  0
VERTEX
  8
┌▓È6
 10
-12175.00075
 20
7121.721
  0
VERTEX
  8
┌▓È6
 10
-11925.00075
 20
7121.721
  0
SEQEND
  0
POLYLINE
  8
┌▓È6
 66
     1
 70
     1
  0
VERTEX
  8
┌▓È6
 10
-11425.00075
 20
7471.721
  0
VERTEX
  8
┌▓È6
 10
-11675.00075
 20
7471.721
  0
VERTEX
  8
┌▓È6
 10
-11675.00075
 20
7121.721
  0
VERTEX
  8
┌▓È6
 10
-11425.00075
 20
7121.721
  0
SEQEND
  0
POLYLINE
  8
┌▓È6
 66
     1
 70
     1
  0
VERTEX
  8
┌▓È6
 10
-10925.00075
 20
7471.721
  0
VERTEX
  8
┌▓È6
 10
-11175.00075
 20
7471.721
  0
VERTEX
  8
┌▓È6
 10
-11175.00075
 20
7121.721
  0
VERTEX
  8
┌▓È6
 10
-10925.00075
 20
7121.721
  0
SEQEND
  0
POLYLINE
  8
┌▓È6
 66
     1
 70
     1
  0
VERTEX
  8
┌▓È6
 10
-5800.0
 20
7721.721
  0
VERTEX
  8
┌▓È6
 10
-6650.0
 20
7721.721
  0
VERTEX
  8
┌▓È6
 10
-6650.0
 20
6871.721
  0
VERTEX
  8
┌▓È6
 10
-5800.0
 20
6871.721
  0
SEQEND
  0
CIRCLE
  8
┌▓È6
 10
-6225.0
 20
7296.721
 40
262.5
  0
POLYLINE
  8
┌▓È6
 66
     1
 70
     1
  0
VERTEX
  8
┌▓È6
 10
-4425.0
 20
7471.721
  0
VERTEX
  8
┌▓È6
 10
-4675.0
 20
7471.721
  0
VERTEX
  8
┌▓È6
 10
-4675.0
 20
7121.721
  0
VERTEX
  8
┌▓È6
 10
-4425.0
 20
7121.721
  0
SEQEND
  0
POLYLINE
  8
┌▓È6
 66
     1
 70
     1
  0
VERTEX
  8
┌▓È6
 10
-3925.0
 20
7471.721
  0
VERTEX
  8
┌▓È6
 10
-4175.0
 20
7471.721
  0
VERTEX
  8
┌▓È6
 10
-4175.0
 20
7121.721
  0
VERTEX
  8
┌▓È6
 10
-3925.0
 20
7121.721
  0
SEQEND
  0
POLYLINE
  8
┌▓È6
 66
     1
 70
     1
  0
VERTEX
  8
┌▓È6
 10
-3425.0
 20
7471.721
  0
VERTEX
  8
┌▓È6
 10
-3675.0
 20
7471.721
  0
VERTEX
  8
┌▓È6
 10
-3675.0
 20
7121.721
  0
VERTEX
  8
┌▓È6
 10
-3425.0
 20
7121.721
  0
SEQEND
  0
POLYLINE
  8
┌▓È6
 66
     1
 70
     1
  0
VERTEX
  8
┌▓È6
 10
-15800.00075
 20
7721.721
  0
VERTEX
  8
┌▓È6
 10
-16650.00075
 20
7721.721
  0
VERTEX
  8
┌▓È6
 10
-16650.00075
 20
6871.721
  0
VERTEX
  8
┌▓È6
 10
-15800.00075
 20
6871.721
  0
SEQEND
  0
CIRCLE
  8
┌▓È6
 10
-16225.00075
 20
7296.721
 40
262.5
  0
POLYLINE
  8
┌▓È6
 66
     1
 70
     1
  0
VERTEX
  8
┌▓È6
 10
5387.0145
 20
7721.721
  0
VERTEX
  8
┌▓È6
 10
4537.0145
 20
7721.721
  0
VERTEX
  8
┌▓È6
 10
4537.0145
 20
6871.721
  0
VERTEX
  8
┌▓È6
 10
5387.0145
 20
6871.721
  0
SEQEND
  0
CIRCLE
  8
┌▓È6
 10
4962.0145
 20
7296.721
 40
262.5
  0
POLYLINE
  8
┌▓È6
 66
     1
 70
     1
  0
VERTEX
  8
┌▓È6
 10
6762.0145
 20
7471.721
  0
VERTEX
  8
┌▓È6
 10
6512.0145
 20
7471.721
  0
VERTEX
  8
┌▓È6
 10
6512.0145
 20
7121.721
  0
VERTEX
  8
┌▓È6
 10
6762.0145
 20
7121.721
  0
SEQEND
  0
POLYLINE
  8
┌▓È6
 66
     1
 70
     1
  0
VERTEX
  8
┌▓È6
 10
7262.0145
 20
7471.721
  0
VERTEX
  8
┌▓È6
 10
7012.0145
 20
7471.721
  0
VERTEX
  8
┌▓È6
 10
7012.0145
 20
7121.721
  0
VERTEX
  8
┌▓È6
 10
7262.0145
 20
7121.721
  0
SEQEND
  0
POLYLINE
  8
┌▓È6
 66
     1
 70
     1
  0
VERTEX
  8
┌▓È6
 10
7762.0145
 20
7471.721
  0
VERTEX
  8
┌▓È6
 10
7512.0145
 20
7471.721
  0
VERTEX
  8
┌▓È6
 10
7512.0145
 20
7121.721
  0
VERTEX
  8
┌▓È6
 10
7762.0145
 20
7121.721
  0
SEQEND
  0
POLYLINE
  8
┌▓È6
 66
     1
 70
     1
  0
VERTEX
  8
┌▓È6
 10
13510.89925
 20
-9581.55825
  0
VERTEX
  8
┌▓È6
 10
13260.89925
 20
-9581.55825
  0
VERTEX
  8
┌▓È6
 10
13260.89925
 20
-9931.55825
  0
VERTEX
  8
┌▓È6
 10
13510.89925
 20
-9931.55825
  0
SEQEND
  0
POLYLINE
  8
┌▓È6
 66
     1
 70
     1
  0
VERTEX
  8
┌▓È6
 10
14010.89925
 20
-9581.55825
  0
VERTEX
  8
┌▓È6
 10
13760.89925
 20
-9581.55825
  0
VERTEX
  8
┌▓È6
 10
13760.89925
 20
-9931.55825
  0
VERTEX
  8
┌▓È6
 10
14010.89925
 20
-9931.55825
  0
SEQEND
  0
POLYLINE
  8
┌▓È6
 66
     1
 70
     1
  0
VERTEX
  8
┌▓È6
 10
14510.89925
 20
-9581.55825
  0
VERTEX
  8
┌▓È6
 10
14260.89925
 20
-9581.55825
  0
VERTEX
  8
┌▓È6
 10
14260.89925
 20
-9931.55825
  0
VERTEX
  8
┌▓È6
 10
14510.89925
 20
-9931.55825
  0
SEQEND
  0
POLYLINE
  8
┌▓È6
 66
     1
 70
     1
  0
VERTEX
  8
┌▓È6
 10
12135.89925
 20
-9406.55825
  0
VERTEX
  8
┌▓È6
 10
11435.89925
 20
-9406.55825
  0
VERTEX
  8
┌▓È6
 10
11435.89925
 20
-10106.55825
  0
VERTEX
  8
┌▓È6
 10
12135.89925
 20
-10106.55825
  0
SEQEND
  0
CIRCLE
  8
┌▓È6
 10
11785.89925
 20
-9756.55825
 40
237.5
  0
POLYLINE
  8
┌▓È6
 66
     1
 70
     1
  0
VERTEX
  8
┌▓È6
 10
15762.01375
 20
7621.721
  0
VERTEX
  8
┌▓È6
 10
15512.01375
 20
7621.721
  0
VERTEX
  8
┌▓È6
 10
15512.01375
 20
7271.721
  0
VERTEX
  8
┌▓È6
 10
15762.01375
 20
7271.721
  0
SEQEND
  0
POLYLINE
  8
┌▓È6
 66
     1
 70
     1
  0
VERTEX
  8
┌▓È6
 10
16262.01375
 20
7621.721
  0
VERTEX
  8
┌▓È6
 10
16012.01375
 20
7621.721
  0
VERTEX
  8
┌▓È6
 10
16012.01375
 20
7271.721
  0
VERTEX
  8
┌▓È6
 10
16262.01375
 20
7271.721
  0
SEQEND
  0
POLYLINE
  8
┌▓È6
 66
     1
 70
     1
  0
VERTEX
  8
┌▓È6
 10
16762.01375
 20
7621.721
  0
VERTEX
  8
┌▓È6
 10
16512.01375
 20
7621.721
  0
VERTEX
  8
┌▓È6
 10
16512.01375
 20
7271.721
  0
VERTEX
  8
┌▓È6
 10
16762.01375
 20
7271.721
  0
SEQEND
  0
POLYLINE
  8
┌▓È6
 66
     1
 70
     1
  0
VERTEX
  8
┌▓È6
 10
14387.01375
 20
7796.721
  0
VERTEX
  8
┌▓È6
 10
13687.01375
 20
7796.721
  0
VERTEX
  8
┌▓È6
 10
13687.01375
 20
7096.721
  0
VERTEX
  8
┌▓È6
 10
14387.01375
 20
7096.721
  0
SEQEND
  0
CIRCLE
  8
┌▓È6
 10
14037.01375
 20
7446.721
 40
237.5
  0
POLYLINE
  8
┌▓È6
 66
     1
 70
     1
  0
VERTEX
  8
┌▓È6
 10
17971.45075
 20
-9406.5585
  0
VERTEX
  8
┌▓È6
 10
17271.45075
 20
-9406.5585
  0
VERTEX
  8
┌▓È6
 10
17271.45075
 20
-10106.5585
  0
VERTEX
  8
┌▓È6
 10
17971.45075
 20
-10106.5585
  0
SEQEND
  0
CIRCLE
  8
┌▓È6
 10
17621.45075
 20
-9756.5585
 40
237.5
  0
LINE
  8
┌▓È6
  6
DOT
 10
3746.07425
 20
-11106.55825
 11
5242.97875
 21
-11106.5585
  0
LINE
  8
┌▓È6
  6
DOT
 10
5492.97875
 20
-10856.5585
 11
5492.97875
 21
-10106.55825
  0
TEXT
  7
TextStyle03
  8
┌▓È8
 10
18300.0
 20
-16625.0
  1
É}û╩û╝
 40
250.0
 72
     5
 11
19110.0
 21
-16625.0
  0
TEXT
  7
TextStyle03
  8
┌▓È8
 10
25050.0
 20
-17825.0
  1
çé
 40
250.0
 72
     5
 11
25300.0
 21
-17825.0
  0
TEXT
  7
TextStyle03
  8
┌▓È8
 10
25050.0
 20
-16625.0
  1
ÅkÄ┌
 40
250.0
 72
     5
 11
25580.0
 21
-16625.0
  0
TEXT
  7
TextStyle03
  8
┌▓È8
 10
25995.0
 20
-17175.0
  1
1/20
 40
300.0
 72
     5
 11
26685.0
 21
-17175.0
  0
TEXT
  7
TextStyle03
  8
┌▓È8
 10
-26495.0
 20
17.5
  1
éb
 40
400.0
 72
     5
 11
-26095.0
 21
17.5
  0
TEXT
  7
TextStyle03
  8
┌▓È8
 10
-26880.0
 20
18560.0
  1
ïZìHÄ║
 40
400.0
 72
     5
 11
-25520.0
 21
18560.0
  0
TEXT
  7
TextStyle03
  8
┌▓È8
 10
20195.0
 20
-17125.0
  1
ôWèJÉ}ïZìHÄ║
 40
400.0
 72
     5
 11
22995.0
 21
-17125.0
  0
TEXT
  7
TextStyle03
  8
┌▓È8
 10
-26922.5
 20
1340.0
  1
éwéP
 40
200.0
 72
     5
 11
-26502.5
 21
1340.0
  0
TEXT
  7
TextStyle03
  8
┌▓È8
 10
577.5
 20
1340.0
  1
éwéQ
 40
200.0
 72
     5
 11
997.5
 21
1340.0
  0
TEXT
  7
TextStyle03
  8
┌▓È8
 10
1977.5
 20
18510.0
  1
éa
 40
400.0
 72
     5
 11
2377.5
 21
18510.0
  0
TEXT
  7
TextStyle03
  8
┌▓È8
 10
-26922.5
 20
-15755.0
  1
éwéQ
 40
200.0
 72
     5
 11
-26502.5
 21
-15755.0
  0
TEXT
  7
TextStyle03
  8
┌▓È8
 10
535.0
 20
-15755.0
  1
éwéP
 40
200.0
 72
     5
 11
955.0
 21
-15755.0
  0
TEXT
  7
TextStyle03
  8
┌▓È8
 10
1990.0
 20
17.5
  1
éc
 40
400.0
 72
     5
 11
2390.0
 21
17.5
  0
TEXT
  7
TextStyle03
  8
┌▓È8
 10
25665.0
 20
-18525.0
  1
éOéRéV
 40
400.0
 72
     5
 11
27025.0
 21
-18525.0
  0
TEXT
  7
TextStyle03
  8
┌▓È8
 10
23215.0
 20
-8405.0
  1
ée
 40
400.0
 72
     5
 11
23615.0
 21
-8405.0
  0
TEXT
  7
TextStyle03
  8
┌▓È8
 10
-2867.5
 20
-15347.5
  1
Ænö┬ìçö┬ t9é╠ÅÒ
 40
300.0
 72
     5
 11
-373.75
 21
-15347.5
  0
TEXT
  7
TextStyle03
  8
┌▓È8
 10
-2867.5
 20
-15685.0
  1
¢├¦┌¢ö┬ t0.6
 40
300.0
 72
     5
 11
-861.25
 21
-15685.0
  0
TEXT
  7
TextStyle03
  8
┌▓È8
 10
7040.0
 20
-15375.0
  1
Éàæà(╝¦©)æOé═öÓòtüiæñö┬ïñüj
 40
300.0
 72
     5
 11
11558.75
 21
-15375.0
  0
TEXT
  7
TextStyle03
  8
┌▓È8
 10
5873.75
 20
4762.5
  1
üiâIü[âvâôüj
 40
300.0
 72
     5
 11
7861.25
 21
4762.5
  0
TEXT
  7
TextStyle03
  8
┌▓È8
 10
14493.75
 20
4762.5
  1
üiâIü[âvâôüj
 40
300.0
 72
     5
 11
16481.25
 21
4762.5
  0
TEXT
  7
TextStyle03
  8
┌▓È8
 10
3462.5
 20
4292.5
  1
æñö┬
 40
300.0
 72
     5
 11
4100.0
 21
4292.5
  0
TEXT
  7
TextStyle03
  8
┌▓È8
 10
3450.0
 20
-12742.5
  1
æñö┬
 40
300.0
 72
     5
 11
4087.5
 21
-12742.5
  0
TEXT
  7
TextStyle03
  8
┌▓È8
 10
13405.0
 20
8257.5
  1
î¨özÆI
 40
300.0
 72
     5
 11
14380.0
 21
8257.5
  0
TEXT
  7
TextStyle03
  8
┌▓È8
 10
12910.0
 20
-8947.5
  1
î¨özÆI
 40
300.0
 72
     5
 11
13885.0
 21
-8947.5
  0
TEXT
  7
TextStyle03
  8
┌▓È8
 10
22147.5
 20
17187.5
  1
Î▓ã¦©Ì
 40
300.0
 72
     5
 11
23141.25
 21
17187.5
  0
TEXT
  7
TextStyle03
  8
┌▓È8
 10
22537.5
 20
16700.0
  1
î¨özÆIÆfû╩ 1/20
 40
300.0
 72
     5
 11
25050.0
 21
16700.0
  0
TEXT
  7
TextStyle03
  8
┌▓È8
 10
16980.0
 20
18305.0
  1
ÊÎð¦ë╗Å¤ö┬ t20 ╠Î»╝¡
 40
300.0
 72
     5
 11
20336.25
 21
18305.0
  0
TEXT
  7
TextStyle03
  8
┌▓È8
 10
18185.0
 20
17235.0
  1
ûÏ 10ü~10 OP
 40
300.0
 72
     5
 11
20191.25
 21
17235.0
  0
TEXT
  7
TextStyle03
  8
┌▓È8
  6
CONTINUOUS
 10
-26972.5
 20
-16925.0
  1
ìýïãæõâoâbâNæõé╠èJìEòöü|É}Äªê╚èOé═É¦ö§É}éãìçéÝé╣éÚÄû
 40
400.0
 72
     5
 11
-14572.5
 21
-16925.0
  0
TEXT
  7
TextStyle03
  8
┌▓È8
  6
CONTINUOUS
 10
-22857.5
 20
-17870.0
  1
ÂÌ¢Ñ║¦¥¦─Ñ¢▓»┴ (û±50ü~70)
 40
400.0
 72
     5
 11
-16897.5
 21
-17870.0
  0
TEXT
  7
TextStyle03
  8
┌▓È8
 10
-26395.0
 20
-19150.0
  1
(140)
 40
300.0
 72
     5
 11
-25570.0
 21
-19150.0
  0
TEXT
  7
TextStyle03
  8
┌▓È8
 10
-27445.0
 20
-17615.0
  1
âË105
 40
300.0
 72
     5
 11
-26620.0
 21
-17615.0
  0
TEXT
  7
TextStyle03
  8
┌▓È8
 10
-27360.625
 20
-18005.0
  1
(95)
 40
300.0
 72
     5
 11
-26704.375
 21
-18005.0
  0
LINE
  8
┌▓È9
 10
-26667.38125
 20
14652.971
 11
-26667.38125
 21
7496.721
  0
LINE
  8
┌▓È9
 10
-26542.38125
 20
7496.721
 11
-26542.38125
 21
14652.971
  0
LINE
  8
┌▓È9
 10
-26036.13125
 20
7296.721
 11
-26036.13125
 21
14796.721
  0
LINE
  8
┌▓È9
 10
-26861.13125
 20
14946.721
 11
-26861.13125
 21
7073.80425
  0
LINE
  8
┌▓È9
 10
-26425.0
 20
-4406.558
 11
-26425.0
 21
-14406.558
  0
LINE
  8
┌▓È9
 10
27510.89925
 20
-4406.558
 11
27510.89925
 21
-14406.558
  0
LINE
  8
┌▓È9
 10
28160.89925
 20
-4406.558
 11
28160.89925
 21
-14406.558
  0
LINE
  8
┌▓È13
 10
-18336.13125
 20
3096.721
 11
-18175.0
 21
3096.721
  0
LINE
  8
┌▓È13
 10
-26425.0
 20
-14106.558
 11
-26313.86875
 21
-14106.558
  0
LINE
  8
┌▓È13
 10
24910.89925
 20
-906.558
 11
24910.89925
 21
-1281.558
  0
LINE
  8
┌▓È13
 10
18785.89925
 20
-906.558
 11
18785.89925
 21
-1281.558
  0
LINE
  8
┌▓È13
  6
CONTINUOUS
 10
24910.89925
 20
-1281.558
 11
18785.89925
 21
-1281.558
  0
LINE
  8
┌▓È13
 10
-22336.13125
 20
3096.721
 11
-22586.13125
 21
3096.721
  0
LINE
  8
┌▓È13
 10
-26086.13125
 20
3096.721
 11
-25836.13125
 21
3096.721
  0
LINE
  8
┌▓È13
 10
-10433.86875
 20
-14106.558
 11
-15193.86875
 21
-14106.558
  0
LINE
  8
┌▓È13
 10
-18055.0
 20
3096.721
 11
-10795.00075
 21
3096.721
  0
LINE
  8
┌▓È13
 10
-26193.86875
 20
-14106.558
 11
-17933.86875
 21
-14106.558
  0
LINE
  8
┌▓È13
 10
-3563.86875
 20
-14106.558
 11
-10193.86875
 21
-14106.558
  0
LINE
  8
┌▓È13
 10
8132.0145
 20
3096.721
 11
16892.01375
 21
3096.721
  0
LINE
  8
┌▓È13
 10
17012.01375
 20
3096.721
 11
17812.01375
 21
3096.721
  0
LINE
  8
┌▓È13
 10
21630.89875
 20
-14106.558
 11
23640.89925
 21
-14106.558
  0
LINE
  8
┌▓È13
 10
24310.89925
 20
-14106.558
 11
23760.89925
 21
-14106.558
  0
LINE
  8
┌▓È13
 10
16760.899
 20
-14106.558
 11
18390.8985
 21
-14106.558
  0
LINE
  8
┌▓È13
 10
14640.89925
 20
-14106.558
 11
9000.89975
 21
-14106.558
  0
LINE
  8
┌▓È13
 10
23929.2195
 20
3096.721
 11
23709.2195
 21
3096.721
  0
LINE
  8
┌▓È13
 10
-8055.00125
 20
3096.721
 11
-3295.0
 21
3096.721
  0
LINE
  8
┌▓È13
 10
-3175.0
 20
3096.721
 11
-425.0
 21
3096.721
  0
LINE
  8
┌▓È13
 10
7892.0145
 20
3096.721
 11
4509.2195
 21
3096.721
  0
LINE
  8
┌▓È13
  6
DOT
 10
4509.2195
 20
3096.721
 11
3009.2195
 21
3096.721
  0
LINE
  8
┌▓È13
 10
5760.89925
 20
-14106.558
 11
4480.8995
 21
-14106.558
  0
LINE
  8
┌▓È13
  6
DOT
 10
4480.8995
 20
-14106.558
 11
2980.8995
 21
-14106.558
  0
LINE
  8
┌▓È14
 10
-25991.83175
 20
-17406.8465
 11
-25991.83175
 21
-17931.8465
  0
LINE
  8
┌▓È14
 10
-26254.33175
 20
-17669.3465
 11
-25729.33175
 21
-17669.3465
  0
LINE
  8
┌▓È14
 10
-20863.86875
 20
-9644.058
 11
-20863.86875
 21
-10169.058
  0
LINE
  8
┌▓È14
 10
-21126.36875
 20
-9906.558
 11
-20601.36875
 21
-9906.558
  0
LINE
  8
┌▓È14
 10
-13363.86875
 20
-9644.058
 11
-13363.86875
 21
-10169.058
  0
LINE
  8
┌▓È14
 10
-13626.36875
 20
-9906.558
 11
-13101.36875
 21
-9906.558
  0
LINE
  8
┌▓È14
 10
-6776.36875
 20
-9756.558
 11
-6301.36875
 21
-9756.558
  0
LINE
  8
┌▓È14
 10
-6538.86875
 20
-9519.058
 11
-6538.86875
 21
-9994.058
  0
LINE
  8
┌▓È14
 10
-13725.00075
 20
7559.221
 11
-13725.00075
 21
7034.221
  0
LINE
  8
┌▓È14
 10
-13987.50075
 20
7296.721
 11
-13462.50075
 21
7296.721
  0
LINE
  8
┌▓È14
 10
-6225.0
 20
7559.221
 11
-6225.0
 21
7034.221
  0
LINE
  8
┌▓È14
 10
-6487.5
 20
7296.721
 11
-5962.5
 21
7296.721
  0
LINE
  8
┌▓È14
 10
-16225.00075
 20
7559.221
 11
-16225.00075
 21
7034.221
  0
LINE
  8
┌▓È14
 10
-16487.50075
 20
7296.721
 11
-15962.50075
 21
7296.721
  0
LINE
  8
┌▓È14
 10
4962.0145
 20
7559.221
 11
4962.0145
 21
7034.221
  0
LINE
  8
┌▓È14
 10
4699.5145
 20
7296.721
 11
5224.5145
 21
7296.721
  0
LINE
  8
┌▓È14
 10
11548.39925
 20
-9756.55825
 11
12023.39925
 21
-9756.55825
  0
LINE
  8
┌▓È14
 10
11785.89925
 20
-9519.05825
 11
11785.89925
 21
-9994.05825
  0
LINE
  8
┌▓È14
 10
13799.51375
 20
7446.721
 11
14274.51375
 21
7446.721
  0
LINE
  8
┌▓È14
 10
14037.01375
 20
7684.221
 11
14037.01375
 21
7209.221
  0
LINE
  8
┌▓È14
 10
17383.95075
 20
-9756.5585
 11
17858.95075
 21
-9756.5585
  0
LINE
  8
┌▓È14
 10
17621.45075
 20
-9519.0585
 11
17621.45075
 21
-9994.0585
  0
ARC
  8
┌▓È14
 10
5242.978832
 20
-10856.558482
 40
250.0
 50
270.0
 51
360.0
  0
ARC
  8
┌▓È14
 10
10630.899696
 20
-10181.558392
 40
250.0
 50
270.0
 51
360.0
  0
LINE
  8
┌▓È14
 10
10880.9
 20
-10181.55825
 11
10880.9
 21
-10101.558
  0
LINE
  8
┌▓È14
 10
10630.89975
 20
-10431.5585
 11
9080.9
 21
-10431.5585
  0
ARC
  8
┌▓È14
 10
9083.246265
 20
-10634.029546
 40
202.484373
 50
90.663921
 51
177.885559
  0
LINE
  8
┌▓È14
 10
8880.89975
 20
-10856.55825
 11
8880.89975
 21
-10626.5585
  0
ARC
  8
┌▓È14
 10
8630.899491
 20
-10856.558797
 40
250.0
 50
270.0
 51
360.0
  0
LINE
  8
┌▓È14
  6
DOT
 10
8880.89975
 20
-14406.558
 11
8880.89975
 21
-10726.55825
  0
LINE
  8
┌▓È14
 10
6130.8995
 20
-11106.5585
 11
8630.8995
 21
-11106.5585
  0
ARC
  8
┌▓È14
 10
6130.899241
 20
-10856.558797
 40
250.0
 50
180.0
 51
270.0
  0
LINE
  8
┌▓È14
 10
5880.89925
 20
-10856.55825
 11
5880.89925
 21
-10726.55825
  0
INSERT
  2
*GRP_0008
  8
┌▓È15
 10
0.0
 20
0.0
  0
INSERT
  2
*HAT_0001
  8
┌▓È15
 10
0.0
 20
0.0
  0
INSERT
  2
*HAT_0002
  8
┌▓È15
 10
0.0
 20
0.0
  0
INSERT
  2
*HAT_0003
  8
┌▓È15
 10
0.0
 20
0.0
  0
INSERT
  2
*HAT_0004
  8
┌▓È15
 10
0.0
 20
0.0
  0
INSERT
  2
*HAT_0005
  8
┌▓È15
 10
0.0
 20
0.0
  0
INSERT
  2
*HAT_0006
  8
┌▓È15
 10
0.0
 20
0.0
  0
INSERT
  2
*HAT_0007
  8
┌▓È15
 10
0.0
 20
0.0
  0
INSERT
  2
*HAT_0008
  8
┌▓È15
 10
0.0
 20
0.0
  0
INSERT
  2
*HAT_0009
  8
┌▓È15
 10
0.0
 20
0.0
  0
INSERT
  2
*HAT_0010
  8
┌▓È15
 10
0.0
 20
0.0
  0
INSERT
  2
*HAT_0011
  8
┌▓È15
 10
0.0
 20
0.0
  0
INSERT
  2
*HAT_0012
  8
┌▓È15
 10
0.0
 20
0.0
  0
INSERT
  2
*GRP_0011
  8
┌▓È15
 10
0.0
 20
0.0
  0
INSERT
  2
*HAT_0013
  8
┌▓È15
 10
0.0
 20
0.0
  0
INSERT
  2
*GRP_0015
  8
┌▓È15
 10
0.0
 20
0.0
  0
INSERT
  2
*GRP_0016
  8
┌▓È15
 10
0.0
 20
0.0
  0
INSERT
  2
*GRP_0017
  8
┌▓È15
 10
0.0
 20
0.0
  0
INSERT
  2
*DIM_0003
  8
┌▓È16
 10
0.0
 20
0.0
  0
CIRCLE
  8
┌▓È16
 10
-26700.0
 20
1446.75675
 40
350.0
  0
CIRCLE
  8
┌▓È16
 10
800.0
 20
1446.75675
 40
350.0
  0
CIRCLE
  8
┌▓È16
 10
-26700.0
 20
-15648.425
 40
350.0
  0
CIRCLE
  8
┌▓È16
 10
758.07875
 20
-15648.425
 40
350.0
  0
LINE
  8
┌▓È16
 10
21971.77525
 20
17809.3375
 11
22571.77525
 21
17809.3375
  0
LINE
  8
┌▓È16
 10
21971.77525
 20
18143.0125
 11
22571.77525
 21
18143.0125
  0
LINE
  8
┌▓È16
 10
22571.77525
 20
17809.3375
 11
22571.77525
 21
18143.0125
  0
POINT
  8
┌▓È16
 10
22571.77525
 20
17809.3375
  0
POINT
  8
┌▓È16
 10
22571.77525
 20
18143.0125
  0
TEXT
  7
TextStyle03
  8
┌▓È16
  6
CONTINUOUS
 10
22870.0
 20
17815.625
  1
50
 40
300.0
 50
90.0
 72
     5
 11
22870.0
 21
18134.375
  0
INSERT
  2
*DIM_0019
  8
┌▓È16
 10
0.0
 20
0.0
  0
INSERT
  2
*DIM_0020
  8
┌▓È16
 10
0.0
 20
0.0
  0
INSERT
  2
*DIM_0021
  8
┌▓È16
 10
0.0
 20
0.0
  0
INSERT
  2
*DIM_0022
  8
┌▓È16
 10
0.0
 20
0.0
  0
CIRCLE
  8
WD
 10
-14625.3595
 20
2248.924
 40
500.0
  0
LINE
  8
WD
 10
-15125.3595
 20
2248.924
 11
-14125.3595
 21
2248.924
  0
TEXT
  7
TextStyle03
  8
WD
 10
-14730.0
 20
2240.0
  1
G
 40
400.0
 72
     5
 11
-14530.0
 21
2240.0
  0
TEXT
  7
TextStyle03
  8
WD
 10
-14907.5
 20
1830.0
  1
2-2
 40
400.0
 72
     5
 11
-14307.5
 21
1830.0
  0
CIRCLE
  8
WD
 10
-9433.80825
 20
2247.97275
 40
500.0
  0
LINE
  8
WD
 10
-9933.80825
 20
2247.97275
 11
-8933.80825
 21
2247.97275
  0
TEXT
  7
TextStyle03
  8
WD
 10
-9540.0
 20
2240.0
  1
G
 40
400.0
 72
     5
 11
-9340.0
 21
2240.0
  0
TEXT
  7
TextStyle03
  8
WD
 10
-9717.5
 20
1830.0
  1
2-3
 40
400.0
 72
     5
 11
-9117.5
 21
1830.0
  0
CIRCLE
  8
WD
 10
-5333.47725
 20
2242.30425
 40
500.0
  0
LINE
  8
WD
 10
-5833.47725
 20
2242.30425
 11
-4833.47725
 21
2242.30425
  0
TEXT
  7
TextStyle03
  8
WD
 10
-5442.5
 20
2237.5
  1
G
 40
400.0
 72
     5
 11
-5242.5
 21
2237.5
  0
TEXT
  7
TextStyle03
  8
WD
 10
-5620.0
 20
1827.5
  1
2-1
 40
400.0
 72
     5
 11
-5020.0
 21
1827.5
  0
CIRCLE
  8
WD
 10
-6620.7525
 20
16831.75425
 40
500.0
  0
TEXT
  7
TextStyle03
  8
WD
 10
-6725.0
 20
16820.0
  1
G
 40
400.0
 72
     5
 11
-6525.0
 21
16820.0
  0
TEXT
  7
TextStyle03
  8
WD
 10
-6740.0
 20
16380.0
  1
4
 40
400.0
 72
     5
 11
-6540.0
 21
16380.0
  0
LINE
  8
WD
 10
-7120.7525
 20
16831.75425
 11
-6120.7525
 21
16831.75425
  0
CIRCLE
  8
WD
 10
-14231.39275
 20
16824.8755
 40
500.0
  0
TEXT
  7
TextStyle03
  8
WD
 10
-14330.0
 20
16810.0
  1
G
 40
400.0
 72
     5
 11
-14130.0
 21
16810.0
  0
TEXT
  7
TextStyle03
  8
WD
 10
-14345.0
 20
16370.0
  1
4
 40
400.0
 72
     5
 11
-14145.0
 21
16370.0
  0
LINE
  8
WD
 10
-14731.39275
 20
16824.8755
 11
-13731.39275
 21
16824.8755
  0
CIRCLE
  8
WD
 10
13464.84475
 20
2238.47525
 40
500.0
  0
LINE
  8
WD
 10
13964.84475
 20
2238.47525
 11
12964.84475
 21
2238.47525
  0
TEXT
  7
TextStyle03
  8
WD
 10
13380.0
 20
2227.5
  1
G
 40
400.0
 72
     5
 11
13580.0
 21
2227.5
  0
TEXT
  7
TextStyle03
  8
WD
 10
13165.0
 20
1787.5
  1
1-1
 40
400.0
 72
     5
 11
13765.0
 21
1787.5
  0
CIRCLE
  8
WD
 10
6001.93075
 20
2242.30425
 40
500.0
  0
LINE
  8
WD
 10
5501.93075
 20
2242.30425
 11
6501.93075
 21
2242.30425
  0
TEXT
  7
TextStyle03
  8
WD
 10
5892.5
 20
2237.5
  1
G
 40
400.0
 72
     5
 11
6092.5
 21
2237.5
  0
TEXT
  7
TextStyle03
  8
WD
 10
5715.0
 20
1827.5
  1
2-1
 40
400.0
 72
     5
 11
6315.0
 21
1827.5
  0
CIRCLE
  8
WD
 10
5433.195
 20
16824.34275
 40
500.0
  0
LINE
  8
WD
 10
4933.195
 20
16824.34275
 11
5933.195
 21
16824.34275
  0
TEXT
  7
TextStyle03
  8
WD
 10
5350.0
 20
16812.5
  1
G
 40
400.0
 72
     5
 11
5550.0
 21
16812.5
  0
CIRCLE
  8
WD
 10
13249.61075
 20
-366.558
 40
500.0
  0
LINE
  8
WD
 10
12749.61075
 20
-366.558
 11
13749.61075
 21
-366.558
  0
TEXT
  7
TextStyle03
  8
WD
 10
13165.0
 20
-377.5
  1
G
 40
400.0
 72
     5
 11
13365.0
 21
-377.5
  0
CIRCLE
  8
WD
 10
4791.11575
 20
-366.558
 40
500.0
  0
LINE
  8
WD
 10
4291.11575
 20
-366.558
 11
5291.11575
 21
-366.558
  0
TEXT
  7
TextStyle03
  8
WD
 10
4710.0
 20
-377.5
  1
G
 40
400.0
 72
     5
 11
4910.0
 21
-377.5
  0
CIRCLE
  8
WD
 10
21198.97025
 20
-14916.91525
 40
500.0
  0
LINE
  8
WD
 10
20698.97025
 20
-14916.91525
 11
21698.97025
 21
-14916.91525
  0
TEXT
  7
TextStyle03
  8
WD
 10
21095.0
 20
-14925.0
  1
G
 40
400.0
 72
     5
 11
21295.0
 21
-14925.0
  0
CIRCLE
  8
WD
 10
-24611.28875
 20
-14927.96925
 40
500.0
  0
LINE
  8
WD
 10
-24111.28875
 20
-14927.96925
 11
-25111.28875
 21
-14927.96925
  0
TEXT
  7
TextStyle03
  8
WD
 10
-24690.0
 20
-14935.0
  1
G
 40
400.0
 72
     5
 11
-24490.0
 21
-14935.0
  0
CIRCLE
  8
WD
 10
-24525.224
 20
-371.65475
 40
500.0
  0
LINE
  8
WD
 10
-25025.224
 20
-371.65475
 11
-24025.224
 21
-371.65475
  0
TEXT
  7
TextStyle03
  8
WD
 10
-24605.0
 20
-375.0
  1
G
 40
400.0
 72
     5
 11
-24405.0
 21
-375.0
  0
CIRCLE
  8
WD
 10
-16558.27875
 20
-349.1055
 40
500.0
  0
LINE
  8
WD
 10
-17058.27875
 20
-349.1055
 11
-16058.27875
 21
-349.1055
  0
TEXT
  7
TextStyle03
  8
WD
 10
-16640.0
 20
-355.0
  1
G
 40
400.0
 72
     5
 11
-16440.0
 21
-355.0
  0
TEXT
  7
TextStyle03
  8
WD
 10
-16655.0
 20
-795.0
  1
3
 40
400.0
 72
     5
 11
-16455.0
 21
-795.0
  0
CIRCLE
  8
WD
 10
-6071.87375
 20
-366.558
 40
500.0
  0
LINE
  8
WD
 10
-6571.87375
 20
-366.558
 11
-5571.87375
 21
-366.558
  0
TEXT
  7
TextStyle03
  8
WD
 10
-6157.5
 20
-375.0
  1
G
 40
400.0
 72
     5
 11
-5957.5
 21
-375.0
  0
CIRCLE
  8
WD
 10
-6201.38325
 20
-14941.24525
 40
500.0
  0
LINE
  8
WD
 10
-6701.38325
 20
-14941.24525
 11
-5701.38325
 21
-14941.24525
  0
TEXT
  7
TextStyle03
  8
WD
 10
-6305.0
 20
-14945.0
  1
G
 40
400.0
 72
     5
 11
-6105.0
 21
-14945.0
  0
CIRCLE
  8
WD
 10
-12844.6115
 20
-14930.718
 40
500.0
  0
LINE
  8
WD
 10
-13344.6115
 20
-14930.718
 11
-12344.6115
 21
-14930.718
  0
TEXT
  7
TextStyle03
  8
WD
 10
-12952.5
 20
-14932.5
  1
G
 40
400.0
 72
     5
 11
-12752.5
 21
-14932.5
  0
TEXT
  7
TextStyle03
  8
WD
 10
-13130.0
 20
-15342.5
  1
2-1
 40
400.0
 72
     5
 11
-12530.0
 21
-15342.5
  0
CIRCLE
  8
WD
 10
-16492.3955
 20
-14923.562
 40
500.0
  0
LINE
  8
WD
 10
-16992.3955
 20
-14923.562
 11
-15992.3955
 21
-14923.562
  0
TEXT
  7
TextStyle03
  8
WD
 10
-16597.5
 20
-14930.0
  1
G
 40
400.0
 72
     5
 11
-16397.5
 21
-14930.0
  0
TEXT
  7
TextStyle03
  8
WD
 10
-16775.0
 20
-15340.0
  1
2-3
 40
400.0
 72
     5
 11
-16175.0
 21
-15340.0
  0
CIRCLE
  8
WD
 10
-20562.3405
 20
-14896.1265
 40
500.0
  0
LINE
  8
WD
 10
-21062.3405
 20
-14896.1265
 11
-20062.3405
 21
-14896.1265
  0
TEXT
  7
TextStyle03
  8
WD
 10
-20667.5
 20
-14900.0
  1
G
 40
400.0
 72
     5
 11
-20467.5
 21
-14900.0
  0
TEXT
  7
TextStyle03
  8
WD
 10
-20845.0
 20
-15310.0
  1
2-1
 40
400.0
 72
     5
 11
-20245.0
 21
-15310.0
  0
CIRCLE
  8
WD
 10
13839.475
 20
16811.4145
 40
500.0
  0
LINE
  8
WD
 10
13339.475
 20
16811.4145
 11
14339.475
 21
16811.4145
  0
TEXT
  7
TextStyle03
  8
WD
 10
13760.0
 20
16800.0
  1
G
 40
400.0
 72
     5
 11
13960.0
 21
16800.0
  0
TEXT
  7
TextStyle03
  8
WD
 10
13745.0
 20
16360.0
  1
5
 40
400.0
 72
     5
 11
13945.0
 21
16360.0
  0
TEXT
  7
TextStyle03
  8
WD
 10
5135.0
 20
16372.5
  1
6-2
 40
400.0
 72
     5
 11
5735.0
 21
16372.5
  0
TEXT
  7
TextStyle03
  8
WD
 10
-24905.0
 20
-15375.0
  1
2-4
 40
400.0
 72
     5
 11
-24305.0
 21
-15375.0
  0
TEXT
  7
TextStyle03
  8
WD
 10
-6482.5
 20
-15355.0
  1
1-4
 40
400.0
 72
     5
 11
-5882.5
 21
-15355.0
  0
TEXT
  7
TextStyle03
  8
WD
 10
4495.0
 20
-817.5
  1
6-1
 40
400.0
 72
     5
 11
5095.0
 21
-817.5
  0
TEXT
  7
TextStyle03
  8
WD
 10
13150.0
 20
-817.5
  1
5
 40
400.0
 72
     5
 11
13350.0
 21
-817.5
  0
TEXT
  7
TextStyle03
  8
WD
 10
20917.5
 20
-15335.0
  1
1-3
 40
400.0
 72
     5
 11
21517.5
 21
-15335.0
  0
TEXT
  7
TextStyle03
  8
WD
 10
-24620.0
 20
-815.0
  1
3
 40
400.0
 72
     5
 11
-24420.0
 21
-815.0
  0
TEXT
  7
TextStyle03
  8
WD
 10
-6372.5
 20
-815.0
  1
6-3
 40
400.0
 72
     5
 11
-5772.5
 21
-815.0
  0
CIRCLE
  8
WD
 10
11990.61475
 20
-15097.98825
 40
500.0
  0
LINE
  8
WD
 10
11490.61475
 20
-15097.98825
 11
12490.61475
 21
-15097.98825
  0
TEXT
  7
TextStyle03
  8
WD
 10
11880.0
 20
-15102.5
  1
G
 40
400.0
 72
     5
 11
12080.0
 21
-15102.5
  0
TEXT
  7
TextStyle03
  8
WD
 10
11702.5
 20
-15512.5
  1
1-2
 40
400.0
 72
     5
 11
12302.5
 21
-15512.5
  0
ENDSEC
  0
EOF
